The Vile Truth Breakdown

(/) Slide Up  (\) Slide Down  (h) Hammer On  (p) Pull Off  (b) Bend (r) Release (v) Vibrato
E|------------------------------------------------------------------------------------
B|------------------4--------------------------------------------------------------4--
G|--2---------------4------2---------------------------------------2---------------4--
D|--2------------2--1------2------4--4--5--10----9--7--5--4--5--2--2------------2--1--
A|--0------5--3--3--2------0------4--4--5--10----9--7--5--4--5--2--0------5--3--3--2--
E|---------3--1-------------------2--2--3--8-----7--5--3--2--3--0---------3--1--------



E|-----------------------
B|--2------5--6----------
G|--3------4--5----------
D|--0------2--3--5----4--
A|--0------2--3--3----2--
E|-----------------------



E|--------------------------------------------------------------------------------------
B|--------------------------------------------------------------------------------------
G|--------------------------------------------------------------------------------------
D|--7--5--3--2--1--7--9--10--13--12--7--5--3--2--1--0--2--3-----------7--8--7--8--7--8--
A|-----------------------------------------------------------3--2--0--------------------
E|--------------------------------------------------------------------------------------



E|----------------------------------------------------------------------------
B|----------------------------------------------------------------------------
G|----------------------------------------------------------------7-----------
D|-----7--8--7--8--7--8--10-----7--8--7--8--7--8--7--10--8--7--5-----5--3--2--
A|--0------------------------0------------------------------------------------
E|----------------------------------------------------------------------------



E|----------------------------------------------------------------------------------------
B|----------------------------------------------------------------------------------------
G|--------------7------------------------6-----------------------7------------6-----------
D|-----7--8--7-----8--7---------7--8--7-----8--7--------7--8--7-----8--7---------8--7-----
A|--0--------------------10--0--------------------8--0--------------------10-----------8--
E|----------------------------------------------------------------------------------------



E|----------------------------------------------------------------------------------------
B|----------------------------------------------------------------------------------------
G|--5-----------------------7------------------------6-----------------------7------------
D|-----5-----------7--8--7-----8--7---------7--8--7-----8--7--------7--8--7-----8--7------
A|--------3--2--0--------------------10--0--------------------8--0--------------------10--
E|----------------------------------------------------------------------------------------



E|-----------------------------------------------------------------------------------------
B|-----------------------------------------------------------------------------------------
G|--6-----------5-----------------2--------------------------------------------------------
D|-----8--7--------5-----------2-----2--3--2--------2-----------3--2--------2--------2--3--
A|-----------8--------3--2--3-----------------5--3-----5--3--2--------5--3-----5--3--------
E|-----------------------------------------------------------------------------------------



E|-----------------------------------------------------------------------------------------
B|-----------------------------------------------------------------------------------------
G|--------------------------------------------------------------------5--7--5--------------
D|--2--------2-----------3--2--------2--------2--3--------3--5-----------------8--7--5--5--
A|-----5--3-----5--3--2--------5--3-----5--3--------5--3--------7--5-----------------------
E|-----------------------------------------------------------------------------------------



E|--------------------
B|-----------------5--
G|-----------------4--
D|--3--3--2--------2--
A|-----------5--3--2--
E|-----------------0--



E|--------------------------------------------------
B|--------------------------------------------------
G|--------2-----------2-----------2-----------2-----
D|-----2-----2-----2-----2-----2-----2-----2-----2--
A|--0-----------0-----------0-----------0-----------
E|--------------------------------------------------
http://www.guitartabcreator.com
Guitar Tab Creator is intended to store guitar tab created through the tool. It currently does not support in-line text editing. Any text you place in here will be lost. If you need to comment on your tab, please use the "Tab Notes" section located below.