The Vile Truth

(/) Slide Up  (\) Slide Down  (h) Hammer On  (p) Pull Off  (b) Bend (r) Release (v) Vibrato
E|----------------------------------------------------------------------------------------
B|----------------------------------------------------------------------------------------
G|--------------7------------------------6-----------------------7------------6-----------
D|-----7--8--7-----8--7---------7--8--7-----8--7--------7--8--7-----8--7---------8--7-----
A|--0--------------------10--0--------------------8--0--------------------10-----------8--
E|----------------------------------------------------------------------------------------



E|-------------------------------------------------------------------------------------------
B|-------------------------------------------------------------------------------------------
G|--5-----------------------7------------------------6-----------------------7---------------
D|-----5-----------7--8--7-----8--7---------7--8--7-----8--7--------7--8--7-----8--7---------
A|--------3--2--0--------------------10--0--------------------8--0--------------------10-----
E|-------------------------------------------------------------------------------------------



E|--------------------------------------------------------------
B|--------------------------------------------------6-----------
G|--6-----------5-----------------2-----3-----3--5-----8--7-----
D|-----8--7--------5-----------2-----2-----5-----------------8--
A|-----------8--------3--2--3-----------------------------------
E|--------------------------------------------------------------



E|--------------------------------------------------------------------------------------------------
B|--------------------------------------------------------------------------------------------------
G|--5-----------------2-----------------------------------------------------------------------------
D|-----5-----------2-----2--3--2--------2-----------3--2--------2-----------3--2--------2-----------
A|--------3--2--3-----------------5--3-----5--3--2--------5--3-----5--3--2--------5--3-----5--3-----
E|--------------------------------------------------------------------------------------------------



E|-------------------------------------------------------------------
B|-------------------------------------------------------------------
G|---------------------------------------------------2---------------
D|----------2-------2--------2-----2-----------------2--2-----2------
A|--2-------2----3--2--5--3--2--3--2--------------3--2--5--3--2------
E|-----5--3b0----1--0--3--1--0--1--0--0--0--0--0--1--0--3--1--0------



E|-----------------------------------------------------
B|-----------------------------------------5--5--4--4--
G|-----------------------------------------5--5--4--4--
D|-----2--------2-----2--------------5--4--------------
A|--3--2--5--3--2--3--2--------------3--2--------------
E|--1--0--3--1--0--1--0--0--0--0--0--------------------



E|---------------------------------------------------------------------------------------------
B|---------------------------------------------------------8-------8----6----6--6--------------
G|---------------------------------------------------2-----7-------7----5----5--5--------------
D|--2--3-----3----------------------2--------0--2h3-----5--5----5--5----3----3--3--------------
A|--0-----5-----5--0--2----2--3--5-----5--3-------------5--5----5--5----3----3--3--2--2--2--2--
E|---------------------------------------------------------------------------------------------



E|--------------------
B|--5--8--5--3--6-----
G|--4--7--4--2--5-----
D|--2--5--2--0--3-----
A|--2--5--2--0--3-----
E|--------------------



E|-------------------------------------------------------------------------------------
B|-------------------------------------------------------------6-------6----5----5--5--
G|--------------------------------0----------2--5--3--2--0-----5-------5----4----4--4--
D|--2--3-----3-----------------------0--2h3-----------------3--3----3--3----2----2--2--
A|--0-----5-----5--2-----0--2--3----------------------------3--3----3--3----2----2--2--
E|--------------------3----------------------------------------------------------------



E|----------------------------------
B|--------------8--5--6--3----------
G|--------------7--4--5--2----------
D|--------------5--2--3--0----------
A|--2--2--2--2--5--2--3--0----------
E|----------------------------------
http://www.guitartabcreator.com
Guitar Tab Creator is intended to store guitar tab created through the tool. It currently does not support in-line text editing. Any text you place in here will be lost. If you need to comment on your tab, please use the "Tab Notes" section located below.