The Cossack Pt 2

(/) Slide Up  (\) Slide Down  (h) Hammer On  (p) Pull Off  (b) Bend (r) Release (v) Vibrato

E|----------------------------------------------------------------------------------9/11--8------
B|------------------------------------------------------------------------------11---------------
G|--5-------------5--6--8--------------8--10--11--10--13----11--10----------10-------------------
D|-------6-----6-----------8--------8-------------------------------13--11-----------------------
A|----------8-------------------10---------------------------------------------------------------
E|-----------------------------------------------------------------------------------------------



E|--13--13--11--11--9--9--8--8--11--11--9--9--8--8--6--6--------------------------------------
B|--------------------------------------------------------6--6--------------------------------
G|--------------------------------------------------------------5--5--------5--5--6--6--8--8--
D|--------------------------------------------------------------------6--6--------------------
A|--------------------------------------------------------------------------------------------
E|--------------------------------------------------------------------------------------------
http://www.guitartabcreator.com
Guitar Tab Creator is intended to store guitar tab created through the tool. It currently does not support in-line text editing. Any text you place in here will be lost. If you need to comment on your tab, please use the "Tab Notes" section located below.