The Cossack

(/) Slide Up  (\) Slide Down  (h) Hammer On  (p) Pull Off  (b) Bend (r) Release (v) Vibrato
E|--------------------------------------------------------------------------------------------------
B|----------------------------------------------------------------------------------------------14--
G|------17--18--17----------17--18h17p15/20--17--18h17------------------17--18--15----------15------
D|--15------------------16------------------------------18--16------15------------------13----------
A|--------------------------------------------------------------------------------------------------
E|--------------------------------------------------------------------------------------------------



E|------14-----------------------------------------------------------------------------------------
B|--16------16--14---------------------------------------------------------------------------------
G|------------------15------17--18--17----------17--18h17p15/20--17--18h17------------------17-----
D|----------------------15------------------16------------------------------18--16------15---------
A|-------------------------------------------------------------------------------------------------
E|-------------------------------------------------------------------------------------------------



E|------------------------------16-----------------------------------------------------------------
B|----------------------16--18------18--16--14--18--16--14------14--------------------------13/16--
G|--18--17----------17--------------------------------------15------15--13--12----------12---------
D|--------------15------------------------------------------------------------------13-------------
A|------------------------------------------------------------------------------15-----------------
E|-------------------------------------------------------------------------------------------------



E|-------------------------------------------------------------------------------------------------
B|--13--11------11---------------------------------------------------------------------------------
G|----------13------13--11------11--------------10---------------------------11--------------------
D|--------------------------13------13--11---------------------8----------------------------8--10--
A|------------------------------------------12------8--10--11-----11--10--8------8--10--11---------
E|-------------------------------------------------------------------------------------------------



E|------------------------------------------------------------------------------------------------
B|------------------------------------------------------------------------------------------------
G|------8--10---------------------------11------------------------8--10---------------------------
D|--11--------------------8----------------------------8--10--11--------------------8-------------
A|-------------8--10--11-----11--10--8------8--10--11--------------------8--10--11-----11--10-----
E|------------------------------------------------------------------------------------------------



E|------------------------------------------------------------------------------------------------
B|------------------------------------------------------------------------------------------------
G|-----11------------------------8--10---------------------------11------------------------8--10--
D|--------------------8--10--11--------------------8--------------------8------10------10---------
A|--8------8--10--11--------------------8--10--11-----11--10--8------8-----11------12-------------
E|------------------------------------------------------------------------------------------------



E|---------------------------------------------------------------------------------
B|---------------------------------------------------------------------------------
G|--11--9--8-----------------5--5--5-----------------------------------------------
D|------------8--7--------------------------------------3--3--3--------------------
A|------------------7--5--4-----------3--5--6--6--6--6-----------6--3--5--5--5--5--
E|---------------------------------------------------------------------------------
http://www.guitartabcreator.com
Guitar Tab Creator is intended to store guitar tab created through the tool. It currently does not support in-line text editing. Any text you place in here will be lost. If you need to comment on your tab, please use the "Tab Notes" section located below.