who am i

(/) Slide Up  (\) Slide Down  (h) Hammer On  (p) Pull Off  (b) Bend (r) Release (v) Vibrato


E|----------------------------------------------------------|----------------------------------------
B|--------------------------------0h2--4--4-----4--2-----2--|--------------------------------0h2-----
G|--4-----4--3--4--------4--3--4----------4--4-----3--3-----|--4-----4--3--4--------4--3--4----------
D|-----4--------------4-------------------------------------|-----4--------------4-------------------
A|--1-------------------------------------------------------|--1-------------------------------------
E|-----------------0----------------------4--------2--------|-----------------4----------------------



E|-----------------------
B|--4--4-----4--2-----2--
G|-----4--4-----3--3-----
D|-----------------------
A|-----------------------
E|-----4--------2--------
http://www.guitartabcreator.com
Guitar Tab Creator is intended to store guitar tab created through the tool. It currently does not support in-line text editing. Any text you place in here will be lost. If you need to comment on your tab, please use the "Tab Notes" section located below.