one last breath

(/) Slide Up  (\) Slide Down  (h) Hammer On  (p) Pull Off  (b) Bend (r) Release (v) Vibrato


E|--2-----5-----0h2--------------------------------------------------------------3--
B|-------------------3--------2--3/5--2v--3--------3--2--3--------3-----3-----3-----
G|----------------------2-----------------------------------4--------------3--------
D|--0--0-----0-------------0-----------------------------------------3--------------
A|-------------------------------------------0--2-----------------------------------
E|-------------------------------------------------------------3--------------------



E|--2-----3--2r0----------------------------------2--------------------3--------
B|----------------------------2h3--------------3-----3--------------3-----3-----
G|-------------------------2-------4--------4-----------4--------4-----------4--
D|--0--0----------------2----------------4--------------------5-----------------
A|----------------4--0----------------2--------------------5--------------------
E|------------------------------------------------------------------------------
http://www.guitartabcreator.com
Guitar Tab Creator is intended to store guitar tab created through the tool. It currently does not support in-line text editing. Any text you place in here will be lost. If you need to comment on your tab, please use the "Tab Notes" section located below.