heaven

(/) Slide Up  (\) Slide Down  (h) Hammer On  (p) Pull Off  (b) Bend (r) Release (v) Vibrato
E|--------0--------0--------0--1--0-------------------------------------------
B|--1--3-----1--3-----1--3-----1-----3----------------------------------------
G|-----------2-----------------1------------12--10--9------12--10--9----------
D|--2--------2-----------------2--------10-------------10-------------10------
A|--3-----------------2--------3------------------------------------------12--
E|--------------------3--------1----------------------------------------------



E|--------------3--3--3--3--1--1--------1--1--3--3--3--3--------------3--3--3--3--1--1--
B|--1--1--1--1--3--3--3--3--3--3--1--1--3--3--3--3--3--3--1--1--1--1--3--3--3--3--3--3--
G|--------2--2--------------2--2--2--2--2--2--------------------2--2--------------2--2--
D|--2--2--2--2--------------------2--2--------------------2--2--2--2--------------------
A|--3--3--------2--2--2--2--------------------2--2--2--2--3--3--------2--2--2--2--------
E|--------------3--3--3--3--------------------3--3--3--3--------------3--3--3--3--------



E|--------1--1--3--3--3--3--
B|--1--1--3--3--3--3--3--3--
G|--2--2--2--2--------------
D|--2--2--------------------
A|--------------2--2--2--2--
E|--------------3--3--3--3--
http://www.guitartabcreator.com
Guitar Tab Creator is intended to store guitar tab created through the tool. It currently does not support in-line text editing. Any text you place in here will be lost. If you need to comment on your tab, please use the "Tab Notes" section located below.