HCYM Verse

(/) Slide Up  (\) Slide Down  (h) Hammer On  (p) Pull Off  (b) Bend (r) Release (v) Vibrato


E|--------------------------------------------------------------------------------------------
B|--------------------------------------------------------------------------------------------
G|--11--9-------------------------9--11--9----------11--11--9------9----11--9-----------------
D|---------12--12--11--11--11/12------------12--12-------------12--------------12--12--11-----
A|--------------------------------------------------------------------------------------------
E|--------------------------------------------------------------------------------------------



E|--------------------------------------------------------------------------------------
B|--------------------------------------------------------------------------------------
G|-------------9----11--9----------11--11--9-----------11--9-------------------------9--
D|--11--11/12--------------12--12-------------12--9-----------12--12--11--11--11/12-----
A|--------------------------------------------------------------------------------------
E|--------------------------------------------------------------------------------------



E|-----------------------------------
B|-----------------------------------
G|--11--9----------11--11--9---------
D|---------12--12-------------12--9--
A|-----------------------------------
E|-----------------------------------
http://www.guitartabcreator.com
Guitar Tab Creator is intended to store guitar tab created through the tool. It currently does not support in-line text editing. Any text you place in here will be lost. If you need to comment on your tab, please use the "Tab Notes" section located below.