I knew you were trouble- Taylor Swift (Arranged by YeChan Lee)

(/) Slide Up  (\) Slide Down  (h) Hammer On  (p) Pull Off  (b) Bend (r) Release (v) Vibrato  

A: B:
E|-2---2---2---2---2---2---2-|-2p0-------2p0---------|-2p0-------0h2p0---------|-2p0-------2p0-
B|---------------------------|-----3---------3-------|-----3-----------3-------|-----3-3-------
G|---------------------------|-------2---------2-----|-------2-----------2-----|---------------
D|-0---0---0---0---0---0---0-|-0-----0-0-0-----0-0---|-------------------------|---------------
A|---------------------------|-----------------------|-0-----0-0-0-------0-0---|-2-----2-2-2---
E|---x---x---x---x---x---x---|-----------------------|-------------------------|---------------
-

C:
E|-------|-2p0---------------|---------------0---------2p0-|---------------0---------2p0-|-
B|-3-3---|-----3-3-3-3-3-3-3-|-----------------------------|-----------------------------|-
G|-------|-------------------|-2---2-----2-----2-----------|-2---2-----2-----2-----------|-
D|-------|-------------------|-0-0-----0---0-0---0---0-----|-----------------------------|-
A|---2-2-|-------------------|-----------------------------|-0-0-----0---0-0---0---0-----|-
E|-------|-3-----3-3-3-3-3-3-|-------x-------------x-------|-------x-------------x-------|-


D:
E|---------------0---------2p0-|-------x-|-----2-------2---|-----------|---------0-0-|---
B|-----------------------------|-------3-|-----------------|-----------|-3\2---2-2-0-|---
G|-2---2-----2-----2-----------|-3---3-0-|-4-----4-------4-|-2h4---4-4-|-------2-0-0-|---
D|-----------------------------|-------0-|-----------------|-----------|---------2---|---
A|-2-2-----2---2-2---2---2-----|-------x-|-2-2-------2-----|-----------|-0---0-------|---
E|-------x-------------x-------|-3-3---3-|---------x-------|-3---3---3-|-------------|---


E: F: G:
E|-2---5---|-0---2---|-|-2p0-----2p0---|-2-|-7-|-3-|-5-|-0-|-0-----0-----0--|
B|---------|---------|-|-----3-------3-|-3-|-x-|-3-|-x-|-0-|---3-----3-----3|
G|---2-----|---2-----|-|---------------|-4-|-4-|-0-|-2-|-2-|----------------|
D|-0-----0-|-0-------|-|-0-----0-0-----|-4-|-x-|-0-|-x-|-2-|-2---2-2---2----|
A|---------|-------0-|-|---------------|-2-|---|-2-|---|-0-|----------------|
E|---------|---------|-|---------------|---|---|-3-|---|---|----------------|


H:
E|-------|-------|-------|-----0-0-0-0-0|
B|-3-----|-3-----|-3-----|-3-3-----3---3|
G|-------|-------|---0-0-|---------0---2|
D|---5-5-|---5-5-|-------|---------2---2|
A|-2-----|-5-----|-------|---0---------0|
E|-------|-------|-3-----|--------------|

Song Structure:

A-
(B-B-C-D-D-D-D-E-F-G-F-G)*2
H-D-D-D-E-F-G-F-G-D-D(First two Measures)-E
Guitar Tab Creator is intended to store guitar tab created through the tool. It currently does not support in-line text editing. Any text you place in here will be lost. If you need to comment on your tab, please use the "Tab Notes" section located below.