3rd song

(/) Slide Up  (\) Slide Down  (h) Hammer On  (p) Pull Off  (b) Bend (r) Release (v) Vibrato
E|----------------------------------------------------------------------------------------------
B|----------------------------------------------------------------------------------------------
G|----------------------------------------------------------------------------------------------
D|----------------------------------------------------------------------------------------------
A|--10--10--10--10--10--10--10--10--9--9--9--9--9--9--9--9--7--7--7--7--7--7--7--7--5--5--5--5--
E|--7---7---7---7---7---7---7---7---7--7--7--7--7--7--7--7--7--7--7--7--7--7--7--7--7--7--7--7--



E|-----------------------------------------------------------------------------------------------
B|-----------------------------------------------------------------------------------------------
G|-----------------------------------------------------------------------------------------------
D|-----------------------------------------------------------------------------------------------
A|--5--5--5--5--5--5--5--5--5--5--5--5--4--4--4--4--4--4--4--4--5--5--5--5--5--5--5--5--4--4--4--
E|--7--7--7--7--3--3--3--3--3--3--3--3--3--3--3--3--3--3--3--3--3--3--3--3--3--3--3--3--3--3--3--



E|-----------------|--
B|-----------------|--
G|-----------------|--
D|-----------------|--
A|--4--4--4--4--4--|--
E|--3--3--3--3--3--|--



E|--------------------------------------------------------------------------------------------------
B|--------------------------------------------------------------------------------------------------
G|--------------------------------------------------------------------------------------------------
D|--------------------------------------------------------------------------------------------------
A|--2--2--2--2--2--2--2--2--4--4--4--4--4--4--4--4--5--5--5--5--5--5--5--5--7--7--7--7--7--7--7--7--
E|--0--0--0--0--0--0--0--0--3--3--3--3--3--3--3--3--3--3--3--3--3--3--3--3--3--3--3--3--3--3--3--3--



E|--|--
B|--|--
G|--|--
D|--|--
A|--|--
E|--|--



E|--------------
B|--------------
G|--------------
D|--------------
A|----5----7----
E|----3----5----



E|--------------------------------------------------------------------------------------------------
B|--------------------------------------------------------------------------------------------------
G|--------------------------------------------------------------------------------------------------
D|--------------------------------------------------------------------------------------------------
A|--------9--9--10--10--9--9----------7--7------------------------9--9--10--10--9--9----------7--7--
E|--7--7----------------------10--10--------9--9--10--10----7--7----------------------10--10--------



E|----------------
B|----------------
G|----------------
D|----------------
A|----------------
E|--9--10--9--10--



E|-----------
B|-----------
G|-----------
D|-----------
A|-----------
E|-----------



E|-----------------------------------------------------------
B|-----------------------------------------------------------
G|-----------------------------------------------------------
D|-----------------------------------------------------------
A|----------10-----9-----7-----5-----5-----4-----5-----4-----
E|----------7------7-----7-----7-----3-----3-----3-----3-----



E|-----------
B|-----------
G|-----------
D|-----------
A|-----------
E|-----3-----



E|-----------
B|-----------
G|-----------
D|-----------
A|-----------
E|-----3-----



E|-------------------------------------------------
B|-------------------------------------------------
G|-------------------------------------------------
D|-------------------------------------------------
A|--5--------5--------4--------4--------4-------2--
E|--3--3--3--3--3--3--3--3--3--3--3--3--3--3----0--



E|--------------------------------------------------------------------------------
B|--------------------------------------------------------------------------------
G|--------------------------------------------------------------------------------
D|--------------------------------------------------------------------------------
A|--2--------2--------4--------4--------5--------5--------7--------7--------7-----
E|--0--0--0--0--0--0--3--3--3--3--3--3--3--3--3--3--3--3--3--3--3--3--3--3--3--3--
http://www.guitartabcreator.com
Guitar Tab Creator is intended to store guitar tab created through the tool. It currently does not support in-line text editing. Any text you place in here will be lost. If you need to comment on your tab, please use the "Tab Notes" section located below.