cause we've ended as lovers

(/) Slide Up  (\) Slide Down  (h) Hammer On  (p) Pull Off  (b) Bend (r) Release (v) Vibrato


E|-----------|-----|-----------|-----------|-----------|-----|--------|-----------|--
B|-----------|-----|-----------|-----------|-----------|-----|--------|-----------|--
G|-----------|-----|-----------|-----------|-----------|-----|-----5--|--5--5-----|--
D|-----------|-----|-----------|-----------|-----------|--3--|--------|--------5--|--
A|--3--3-----|--3--|-----------|-----------|--------3--|-----|--3-----|-----------|--
E|--------3--|-----|--4--4--3--|--4--4--3--|--1--1-----|-----|--------|-----------|--



E|-----|-----------|-----------|---------------------|--------------|--------|--------------|-----
B|-----|-----------|-----------|---------------------|--------------|--------|--------------|-----
G|--5--|--5--------|-----------|---------------------|--------------|--------|--------------|-----
D|-----|-----------|--------6--|--8--10--8-----6--5--|--------------|--------|--10------10--|-----
A|-----|-----------|-----6-----|------------6--------|--8-----------|-----8--|------10------|-----
E|-----|-----4--6--|--4--------|---------------------|-----8--1--1--|--1-----|--------------|-----



E|--------------|-------------|------------------------------|----------------------|-----------|--
B|--------------|-------------|------------------------------|----------------------|-----------|--
G|--------------|------9--12--|------------------------------|------------------10--|-----------|--
D|--10--10------|--10---------|--12--10--10--10------10------|--6-----------10------|--8--8-----|--
A|----------10--|-------------|------------------10------10--|-----8--8--8----------|--------8--|--
E|--------------|-------------|------------------------------|----------------------|-----------|--



E|--
B|--
G|--
D|--
A|--
E|--



E|-----------------|--------------------|----------------|--------|------------------|-----
B|-----------------|--------------------|----------------|--------|------------------|-----
G|-----------------|--------------------|----------------|--------|----------15------|-----
D|--12--10---------|------------12------|--12------12----|----12--|--15--15------15--|-----
A|----------10-----|--------10------10--|------10--------|--------|------------------|-----
E|--------------8--|--8--8--------------|----------------|--------|------------------|-----



E|------------------|------|-----------------|-----------------------|--
B|------------------|------|-----------------|-----------------------|--
G|--13--------------|------|-----------------|---------8-------------|--
D|------------------|--10--|--------------5--|--8--10-----8--10--10--|--
A|------13--13--13--|------|--------6--8-----|-----------------------|--
E|------------------|------|--0--8-----------|-----------------------|--



E|---------------------------------------|------------------------|--
B|---------------------------------------|------------------------|--
G|------------------------8--13--12------|-------------8----------|--
D|--------------5--8--10-------------13--|--10--8--10-------------|--
A|--------6--8---------------------------|----------------10--10--|--
E|--0--8---------------------------------|------------------------|--



E|-------------------------------------------------|---------------------|--
B|-------------------------------------------------|---------------------|--
G|-----------------------------12--12--------------|---------------------|--
D|--------------5----------15----------15--13------|--8--10--8--8--8--8--|--
A|--------6--8-----13--15----------------------15--|---------------------|--
E|--0--8-------------------------------------------|---------------------|--



E|-----------------------------------|------------------------------------------------------|--
B|-----------------------------------|------------------------------------------------------|--
G|--------------5--7--8--10--12--13--|--15--16--15--16--13--12--13--13--------------12--13--|--
D|-----5--6--8-----------------------|----------------------------------15--13--15----------|--
A|-----------------------------------|------------------------------------------------------|--
E|--5--------------------------------|------------------------------------------------------|--



E|--------------------------------------------------------------
B|--------------------------------------------------------------
G|--12--------------12------------------------------------------
D|------15--13--15------15--13--12--13--15--12------------------
A|----------------------------------------------15--13------15--
E|------------------------------------------------------15------



E|------------------------------|-----------------------------------|--
B|------------------------------|-----------------------------------|--
G|------------------------------|-----------------------------------|--
D|--10--8--10--8------8--8------|-------------8------10--10--8--10--|--
A|----------------10--------10--|--8--10--10-----10-----------------|--
E|------------------------------|-----------------------------------|--



E|--------------------------------------------------|-----------------------------|--
B|--------------------------------------------------|-----------------------------|--
G|--11--12--11--12--------------------------11--10--|--8--------------------------|--
D|------------------13------13--15--13--15----------|--------5--6--8--10--12--13--|--
A|----------------------15--------------------------|-----------------------------|--
E|--------------------------------------------------|-----4-----------------------|--



E|---------------------------------------------|-------------------------------------|--
B|---------------------------------------------|-------------------------------------|--
G|---------------------------------------------|-------------------------------------|--
D|---------8--8----------------8--8------------|---------------------------8------8--|--
A|--8--10--------10--8--6--10--------10--8--6--|--------8--8--6--------10-----10-----|--
E|---------------------------------------------|--8--6-----------8--6----------------|--



E|-------------------------|-----------------------------------------------------|--
B|-------------------------|-----------------------------------------------------|--
G|------------7--7------7--|--8--7-----------------------------------------------|--
D|--8--9------------10-----|--------9--10--10--10--9--10--8---------8---------8--|--
A|--------10---------------|---------------------------------10--8-----9--10-----|--
E|-------------------------|-----------------------------------------------------|--



E|----------------------------------|-----------------------------------------|--
B|----------------------------------|-----------------------------------------|--
G|----------------------------------|-----------------3--------------------3--|--
D|------8---------------------------|-----------3--5-----5--1--------3--5-----|--
A|--10-----10--8--------------------|--------3-----------------3--1-----------|--
E|----------------11--8--8--11--11--|--3--6-----------------------------------|--



E|---------------------|-----------------------------------------|--
B|---------------------|-----------------------------------------|--
G|---------------------|--------------3--------------------------|--
D|--10-----------------|-----------5-----5--4--5--4--------3--5--|--
A|------10--8----------|--5--6--8--------------------6--3--------|--
E|-------------11--11--|-----------------------------------------|--



E|------------------------------------------------------------------|--
B|------------------------------------------------------------------|--
G|------------------------------------------------------------------|--
D|--15--13------15--14--13----------13--15--13----------13----------|--
A|----------15--------------15--13--------------15--13------15--13--|--
E|------------------------------------------------------------------|--



E|-----------------------------------------------|-------------------------------------------|--
B|-----------------------------------------------|-------------------------------------------|--
G|-----------------------------------------------|-----------7--8--5--------10--12--------7--|--
D|--6--5-----------------------------------------|--------6--------------9----------0--6-----|--
A|--------8--6-----8-----------------8-----------|-----5--------------8----------------------|--
E|--------------8-----6--6--4--6--8-----4--6--3--|--4----------------------------------------|--



E|------------------------------------------------------|--
B|------------------------------------------------------|--
G|--13--14--------------15--------------16--------------|--
D|----------13--------------14--------------15----------|--
A|--------------12--------------13--------------14------|--
E|------------------11--------------12--------------13--|--



E|---------------------------------------|-----------------------------------------|--
B|---------------------------------------|-----------------------------------------|--
G|------------------------------7--------|------------------6--7-------------------|--
D|--8--10--8--10--8---------10-----8--8--|--------5--8--10--------8----------------|--
A|-------------------10--8---------------|--6--8---------------------10--8--8--10--|--
E|---------------------------------------|-----------------------------------------|--



E|----------------------------------------|----------------------------------------------|--
B|----------------------------------------|----------------------------------------------|--
G|-------------7--------------------------|----------------------------------------------|--
D|------8--10-----8------8--10------------|---------------------8--10--10--11--12--------|--
A|--10---------------10---------10--8--6--|--6--6--3--6--8--10---------------------------|--
E|----------------------------------------|----------------------------------------6--8--|--



E|--------------------------------------------|------------------------------------------|--
B|--------------------------------------------|------------------------------------------|--
G|--------------3--5--5--7--------------3--5--|--7--8------7-----------------------------|--
D|-----------5--------------------------------|--------10-----8--10------8---------------|--
A|-----6--8-----------------------6--8--------|----------------------10-----8--10--6--8--|--
E|--8-----------------------6--8--------------|------------------------------------------|--



E|-------------------------------------|-------------------------------------------------------|--
B|-------------------------------------|-------------------------------------------------------|--
G|------8------------------------------|-------------------------------------------------------|--
D|--10-----8--8--10--8------10--8------|--8--10------8-----------------------------------------|--
A|----------------------10---------10--|---------10-----8--10--8-------------------------------|--
E|-------------------------------------|--------------------------11--10--9--8--0--6--0--6--0--|--



E|-----|-----------|-----------|-----------------|--------------------|--------------|-----------
B|-----|-----------|-----------|-----------------|--------------------|--------------|-----------
G|-----|-----------|-----------|-----------------|--------------------|--------------|-----------
D|-----|-----------|-----------|--6--------------|--------------3--5--|--3-----------|--------5--
A|--3--|--3--3--3--|--------6--|-----6-----------|--------3--6--------|--------------|-----------
E|-----|-----------|--4--4-----|--------4--4--3--|--1--1--------------|-----1--1--1--|--3--3-----
http://www.guitartabcreator.com
Guitar Tab Creator is intended to store guitar tab created through the tool. It currently does not support in-line text editing. Any text you place in here will be lost. If you need to comment on your tab, please use the "Tab Notes" section located below.