Serpant Queen by Extra Ugly

(/) Slide Up  (\) Slide Down  (h) Hammer On  (p) Pull Off  (b) Bend (r) Release (v) Vibrato

E|------------------------------------------------
B|------------------------------------------------
G|------------------------------------------------
D|--8--5--3h5--10--8--8--5--3h5--5--5--3h5--5--5--
A|--8--5--3-5--10--8--8--5--3-5--5--5--3-5--5--5--
E|--8--5--3-5--10--8--8--5--3-5--5--5--3-5--5--5--



E|---------------------------------------------
B|---------------------------------------------
G|---------------------------------------------
D|--5--5--5-8--8--3p0--0--0--3h5--5--5p3p0--0--
A|--5--5--5-8--8--3-0--0--0--3-5--5--5-3-0--0--
E|--5--5--5/8--8--3-0--0--0--3-5--5--5-3-0--0--



E|-----------------------------------
B|-----------------------------------
G|-----------------------------------
D|--5--8--3--0--3p0--3p0--3--3/5-----
A|--5--8--3--0--3-0--3-0--3--3-5-----
E|--5--8--3--0--3-0--3-0--3--3-5-----



E|------------------
B|------------------
G|------------------
D|--5/8/3/0--5/8-3--
A|--5-8-3-0--5-8-3--
E|--5-8-3-0--5-8/3--



E|---------------------------------------------------------------------------------
B|---------------------------------------------------------------------------------
G|---------------------------------------------------------------------------------
D|-------------7p5------------------10p8h10/12-------------5--3h5p3--0-------------
A|-------5----------5p0-------8----------------------0------------------0-----3p0--
E|--0h5-----5---------0--0h8-----8--------------0h3-----0------------------0-------



E|------------------------------------------------------------------------
B|------------------------------------------------------------------------
G|------------------------------------------------------------------------
D|--5--5--5--5--5--5--5--5/8--8--8--8--8--8--8--8/3--3--3--3--3--3--3--3--
A|--5--5--5--5--5--5--5--5-8--8--8--8--8--8--8--8-3--3--3--3--3--3--3--3--
E|--5--5--5--5--5--5--5--5-8--8--8--8--8--8--8--8-3--3--3--3--3--3--3--3--



E|--------------------------------------------------------------
B|--------------------------------------------------------------
G|--12--10--------------10b12--12--10--------------10b12--------
D|----------12--10--12-----------------12--10--12---------------
A|--------------------------------------------------------------
E|--------------------------------------------------------------
http://www.guitartabcreator.com
Guitar Tab Creator is intended to store guitar tab created through the tool. It currently does not support in-line text editing. Any text you place in here will be lost. If you need to comment on your tab, please use the "Tab Notes" section located below.