Blusy 1

(/) Slide Up  (\) Slide Down  (h) Hammer On  (p) Pull Off  (b) Bend (r) Release (v) Vibrato


E|-------------------------------------------------------------------------
B|-------------------------------------------------------------------------
G|-------------------------------------------------------------------------
D|----------0--3--2--0--------0-----------------0--3--2--0-----------------
A|--0\0--2--------------0--2--------------0--2--------------0--2-----------
E|-------------------------------2--2--2--------------------------2--3--5--



E|-----------------------------------------------------------------------
B|-----------------------------------------------------------------------
G|-----------------------------------------------------------------------
D|--------0--3--2--0--------0-----------------0--3--2--0--------4--5--7--
A|--0--2--------------0--2--------------0--2--------------0--2--4--5--7--
E|-----------------------------2--2--2--------------------------2--3--5--



E|--------------------------------------------------------------------------------------
B|--------------------------------------------------------------------------------------
G|--------4--4--4--4--------------4--4--4--4--------4--4--4--4--------------4--4--4--4--
D|--------4--4--4--4--------------4--4--4--4--------4--4--4--4--------------4--4--4--4--
A|--0--2--2--2--2--2--------0--2--2--2--2--2--0--2--2--2--2--2--------0--2--2--2--2--2--
E|--------------------2--2--------------------------------------2--2-----------------2--
http://www.guitartabcreator.com
Guitar Tab Creator is intended to store guitar tab created through the tool. It currently does not support in-line text editing. Any text you place in here will be lost. If you need to comment on your tab, please use the "Tab Notes" section located below.