epic, winter drumline 2014

(/) Slide Up  (\) Slide Down  (h) Hammer On  (p) Pull Off  (b) Bend (r) Release (v) Vibrato
E|-5-----5-----5---|-5-----5-----5---|-5-----5-----5---|-5-----5-----5---|-5-----5-----5---|-
B|---5-----5-----5-|---5-----5-----5-|---6-----6-----6-|---6-----6-----6-|---5-----5-----5-|-
G|-----5-----5-----|-----5-----5-----|-----5-----5-----|-----5-----5-----|-----5-----5-----|-
D|-----------------|-----------------|-----------------|-----------------|-----------------|-
A|-----------------|-----------------|-----------------|-----------------|-----------------|-
E|-----------------|-----------------|-----------------|-----------------|-----------------|-



E|-5-----5-----5---|-5-----5-----5---|-5-----5-----5---|-8------8-------8----|-7-----8-------------|-
B|---5-----5-----5-|---6-----6-----6-|---6-----6-----6-|---10-----10------10-|---9-----10----10----|-
G|-----5-----5-----|-----5-----5-----|-----5-----5-----|------9------10------|-----9------10----10-|-
D|-----------------|-----------------|-----------------|---------------------|---------------------|-
A|-----------------|-----------------|-----------------|---------------------|---------------------|-
E|-----------------|-----------------|-----------------|---------------------|---------------------|-



E|-------|----------------------|-----|----------------------|----|---3-|-1--0----|----------|---
B|-------|----------------------|-----|----------------------|----|-----|-------1-|----------|---
G|-------|----------------------|-----|----------------------|----|-----|---------|-2--------|---
D|-------|----------------------|-----|----------------------|----|-----|---------|----------|---
A|-------|----------------------|-----|----------------------|----|-----|---------|----------|---
E|-------|-5-5-5-5-4--5-5-5-5-3-|-----|-5-5-5-5-4--5-5-5-5-3-|----|-----|---------|----------|---



E|------------|----------------------|----|----------------------|----|--------|-----|---
B|------------|----------------------|----|----------------------|----|--------|-6-8-|---
G|-2----1-----|----------------------|----|----------------------|----|------5-|-----|---
D|------------|----------------------|----|----------------------|----|--------|-----|---
A|------------|----------------------|----|----------------------|----|--------|-----|---
E|------------|-5-5-5-5-4--5-5-5-5-3-|----|-5-5-5-5-4--5-5-5-5-3-|----|--------|-----|---



E|-5----7---8-|-8-----|---------------|----|--------------|-------------|---------|-------|-
B|------------|-------|---------------|----|--------------|-------------|---------|-------|-
G|------------|-------|---------------|----|-0-0------0-0-|-----0-0-0-0-|---------|-------|-
D|------------|-------|-7-7------7-7--|----|-2-2------2-2-|-----2-2-2-2-|-7-7-----|-------|-
A|------------|-------|-7-7------7-7--|----|--------------|-------------|-7-7-----|-------|-
E|------------|-------|-4-4------4-4--|----|-3-3------3-3-|-----4-4-4-4-|-5-5-----|-------|-



E|---------------------|----------------------|---------------|----------|-------------|----------|-----------------------|--
B|---------------------|----------------------|---------------|----------|--0----------|----------|-----------------------|--
G|---------------------|--5--------4----------|--2------------|----------|--0----------|----------|-----------------------|--
D|------------7--------|--7--------7----------|--3------------|----------|--2----------|----------|-----------------------|--
A|--0------0--7--------|--7--------5----------|--3------------|----------|--3----------|----------|--0----------0------0--|--
E|------------5--------|--5--------5----------|--5------------|----------|-------------|----------|-----------------------|--



E|----------------------|----0--1--0-----|------------------|--------0--1--0-----|---------------|--
B|----------------------|-------------1--|------------2-----|-----------------1--|---------------|--
G|----2--2--------2--2--|----------------|--2--2------2--2--|--------------------|--2--2------2--|--
D|----2--2--------2--2--|----------------|--2--2------2--2--|--------------------|--2--2------2--|--
A|----3--3--------3--3--|----------------|--3--3------3--3--|--------------------|--3--3------3--|--
E|----5--5--------5--5--|----------------|--5--5------5--5--|--------------------|--5--5------5--|--



E|--3--1--0--3--|--------------------|--8------7------3--|----------------|--------------------------------|--
B|--------------|--------------------|-------------------|----------------|--------------------------------|--
G|--------------|--5--5--------5--5--|-------------------|----------------|--------------------------------|--
D|--------------|--3--3--------3--3--|-------------------|----------------|--------------------------------|--
A|--------------|--3--3--------3--3--|-------------------|----------------|--------------------------------|--
E|--------------|--5--5--------5--5--|-------------------|----------------|--5--5--5--5--4--5--5--5--5--4--|--



E|-----------------|------------------|------------|----------------------------------|--
B|-----------------|------------------|------------|----------------------------------|--
G|-----------------|--5------7--------|------------|----------------------------------|--
D|--------------7--|--7------7--------|------------|----------------------------------|--
A|--0------0----7--|--7------5--------|------------|----------------------------------|--
E|--------------5--|--5------5--------|------------|--5--5--5--5--4----5--5--5--5--4--|--



E|----------------------------------|------|-----------|----------------------------------|--
B|----------------------------------|------|-----------|----------------------------------|--
G|----------------------------------|------|-----------|----------------------------------|--
D|----------------------------------|------|-----------|----------------------------------|--
A|----------------------------------|------|-----------|----------------------------------|--
E|--3--3--3--3--5----3--3--3--3--5--|------|--3--------|--5--5--5--5--4----5--5--5--5--4--|--



E|---------------------|------------------------|--------------------|----------------------|--
B|---------------------|------------------------|--------------------|----------------------|--
G|---------------------|------------------------|--------------------|----------------------|--
D|--3------3-----------|-------3--------3-------|--------------------|----------------------|--
A|---------------------|------------------------|--------------------|----------------------|--
E|--------------0------|--0-------0--0-----0----|--3------3--3----3--|--3----3--3--3--3--3--|--



E|-
B|-
G|-
D|-
A|-
E|-
http://www.guitartabcreator.com
Guitar Tab Creator is intended to store guitar tab created through the tool. It currently does not support in-line text editing. Any text you place in here will be lost. If you need to comment on your tab, please use the "Tab Notes" section located below.