Super Mario Bros.

(/) Slide Up  (\) Slide Down  (h) Hammer On  (p) Pull Off  (b) Bend (r) Release (v) Vibrato

E|--0--0--0-----0--3--------
B|-----------1--------------
G|--------------------0-----
D|--------------------------
A|--------------------------
E|--------------------------



E|--------------------------0--3--5--1--3--0-----------
B|--1-----------0-----------------------------1--3--0--
G|-----0-----2-----3--2--0-----------------------------
D|--------2--------------------------------------------
A|-----------------------------------------------------
E|-----------------------------------------------------



E|---3-2-1---0-------------3-2-1-----8-8-8--3-2-1---0-------------------
B|---------4-------1---1-3-------4-5--------------4-------1---1-3-4-3-1-
G|-0-----------1-2---2--------------------------------1-2---2-----------
D|----------------------------------------------------------------------
A|----------------------------------------------------------------------
E|----------------------------------------------------------------------



E|-----------0------------------0------------0-------
B|-1-1-1-1-3---1------1-1-1-1-3----1-1-1-1-3---1-----
G|---------------2-0-----------------------------2-0-
D|---------------------------------------------------
A|---------------------------------------------------
E|---------------------------------------------------



E|-0-0-0---0-3---
B|-------1-------
G|-------------0-
D|---------------
A|---------------
E|---------------



E|-----------------0-3-5-1-3-0-------
B|-1-------0-------------------1-3-0-
G|---0---2---3-2-0-------------------
D|-----2-----------------------------
A|-----------------------------------
E|-----------------------------------



E|--0--------------1--1--------5--5--5--3--1--
B|-----1--------------------0-----------------
G|--------0--1--2--------2--------------------
D|--------------------------------------------
A|--------------------------------------------
E|--------------------------------------------
http://www.guitartabcreator.com
Guitar Tab Creator is intended to store guitar tab created through the tool. It currently does not support in-line text editing. Any text you place in here will be lost. If you need to comment on your tab, please use the "Tab Notes" section located below.