Trollen och tomtepojken


(/) Slide Up (\) Slide Down (h) Hammer On (p) Pull Off (b) Bend (r) Release (v) Vibrato

Intro
E|-----|------------------|-------------|--------------------|--
B|-----|------------------|-------------|--------------------|--
G|--2--|------------------|--3-2--------|--------------------|--
D|--3--|--3-----------3v--|--3\2--------|--------------------|--
A|-----|-----5--3--5------|-------5--3--|--------4--2--6--5--|--
E|-----|------------------|-------------|--0--0--------------|--


Verse
E|----------------------------|------------------------|-----------------------------------------|--
B|----------------------------|------------------------|-----------------------------------------|--
G|----------------------------|------------------------|-----------------------------------------|--
D|----------------------------|------------------------|-----------------------------------------|--
A|----------------------------|------------------------|--------------------3--3--3--3--5--6--7--|--
E|--3v--0--1--0--1--0--1--3v--|--0--1--0--1--0--1--3v--|--0--1--0--1--0--1-----------------------|--


Riff
E|--------------------|------------------|--
B|--------------------|------------------|--
G|--------------------|------------------|--
D|--------------------|--3--1------------|--
A|--7--6--5--6--5--3--|--------3--1------|--
E|--------------------|--------------4v--|--


Chords
E|----------------|--------------|--------------|--
B|----------------|--------------|--------------|--
G|----------------|--------------|--------------|--
D|--9/10--10--10--|--------------|--------------|--
A|--7-8---8---8---|--10--10--10--|--12--13--14--|--
E|----------------|--8---8---8---|--10--11--12--|--
http://www.guitartabcreator.com http://www.guitartabcreator.com
Guitar Tab Creator is intended to store guitar tab created through the tool. It currently does not support in-line text editing. Any text you place in here will be lost. If you need to comment on your tab, please use the "Tab Notes" section located below.