My First Song

(/) Slide Up  (\) Slide Down  (h) Hammer On  (p) Pull Off  (b) Bend (r) Release (v) Vibrato
E|--------------------------
B|--------------------------
G|--------------------------
D|--------------------------
A|--------------------------
E|--8--8--8--0--7--0--6--0--



E|------------------------------
B|------------------------------
G|------------------------------
D|------------------------------
A|--10--10--10--10--9--9--8--8--
E|--8---8---8---0---7--0--6--0--



E|--------------------
B|--------------------
G|--------------------
D|--------------------
A|--10--10--10--9--8--
E|--8---8---8---7--6--



E|------------
B|------------
G|------------
D|------------
A|--10--9--8--
E|--8---7--6--



E|------------------------
B|------------------------
G|------------------------
D|------------------------
A|--10--10--10--10--9--8--
E|--8---8---8---0---7--6--



E|------------------------------
B|------------------------------
G|------------------------------
D|------------------------------
A|--11--11--11--11--9--9--7--7--
E|--9---9---9---0---7--0--5--0--



E|-----------------------------
B|-----------------------------
G|-----------------------------
D|-----------------------------
A|--11--11--11--11--9--9--7----
E|--9---9---9---0---7--0--5/6--



E|-------------------------------
B|-------------------------------
G|-------------------------------
D|-------------------------------
A|--11--11--11--11--9--9--9--11--
E|--9---9---9---0---7--0--7--9---
http://www.guitartabcreator.com
Guitar Tab Creator is intended to store guitar tab created through the tool. It currently does not support in-line text editing. Any text you place in here will be lost. If you need to comment on your tab, please use the "Tab Notes" section located below.