Band Song 1

(/) Slide Up  (\) Slide Down  (h) Hammer On  (p) Pull Off  (b) Bend (r) Release (v) Vibrato


E|--------------------------------------------------------------------------------------------
B|--------------------------------------------------------------------------------------------
G|--------------------------------------------------------------------------------------------
D|--------------------------------------------------------------------------------------------
A|--4--4--4--5--5--5--5--5--5--5--5--5--5--5--5--7--7--7--5--5--5--2--2--2--2--2--2--2--2-----
E|--------------------------------------------------------------------------------------------



E|--------------------------------
B|--------------------------------
G|--------------------------------
D|--------------------------------
A|--4--4--4--5--5--5--7--7--7--9--
E|--------------------------------



E|--------------------------------------------------------------------------
B|--------------------------------------------------------------------------
G|--------------------------------------------------------------------------
D|--------------------------------------------------------------------------
A|--------------------------------------9--9--9--9--9--9--7--7--7--7--7--7--
E|--0--0--0--0--0--0--0--0--0--0--0--0--------------------------------------



E|--------------
B|--------------
G|--------------
D|--------------
A|--7--4--5--2--
E|--------------



E|--------------------------------------
B|--------------------------------------
G|--------------------------------------
D|--------------------------------------
A|--------------------5--5--5--7--7--7--
E|--4--4--4--4--4--4--------------------



E|--------------
B|--------------
G|--------------
D|--------------
A|--7--5--4--2--
E|--------------



E|-----------------------------------------------------------------------------------
B|-----------------------------------------------------------------------------------
G|-----------------------------------------------------------------------------------
D|-----------------------------------------------------------------------------------
A|-----------------------------------------------------------------------------------
E|--2--2--2--2--2--2--0--0--0--0--0--0--4--4--4--4--4--4--2--2--2--0--0--0--4--4--4--
http://www.guitartabcreator.com
Guitar Tab Creator is intended to store guitar tab created through the tool. It currently does not support in-line text editing. Any text you place in here will be lost. If you need to comment on your tab, please use the "Tab Notes" section located below.