Two

(/) Slide Up  (\) Slide Down  (h) Hammer On  (p) Pull Off  (b) Bend (r) Release (v) Vibrato


E|---------------------------------------------------------
B|---------------------------------------------------------
G|---------------9----9---9---9-------------------6--6--6--
D|-----------10-------10--10--10----------7-------7--7--7--
A|-----7h10-----------10--10--10----12\7----------7--7--7--
E|--8-----------------8---8---8--------------5----5--5--5--



E|------------------------------------------------------------
B|---------------------------------------------------8--8--8--
G|---------------9----9---9---9----------------------9--9--9--
D|-----------10-------10--10--10---------------------9--9--9--
A|-----7h10-----------10--10--10------------10--7----7--7--7--
E|--8-----------------8---8---8-------12\7--------------------



E|--
B|--
G|--
D|--
A|--
E|--
http://www.guitartabcreator.com
Guitar Tab Creator is intended to store guitar tab created through the tool. It currently does not support in-line text editing. Any text you place in here will be lost. If you need to comment on your tab, please use the "Tab Notes" section located below.