One

(/) Slide Up  (\) Slide Down  (h) Hammer On  (p) Pull Off  (b) Bend (r) Release (v) Vibrato

E|-------------------------------------------------------9---9---9---
B|------------------------------------------10\5---------10--10--10--
G|---------------9----9---9---9---9----------------------9---9---9---
D|-----------10-------10--10--10--10--------------11--7--7---7---7---
A|-----7h10-----------10--10--10--10---------------------------------
E|--8-----------------8---8---8---8----------------------------------



E|-----------------------------------------------------------9---9---9---
B|------------------------------------------10\5-------------10--10--10--
G|---------------9----9---9---9---9--------------------------9---9---9---
D|-----------10-------10--10--10--10--------------11--7------7---7---7---
A|-----7h10-----------10--10--10--10-------------------------------------
E|--8-----------------8---8---8---8--------------------------------------



E|--
B|--
G|--
D|--
A|--
E|--
http://www.guitartabcreator.com
Guitar Tab Creator is intended to store guitar tab created through the tool. It currently does not support in-line text editing. Any text you place in here will be lost. If you need to comment on your tab, please use the "Tab Notes" section located below.