Christmas Feast

(/) Slide Up  (\) Slide Down  (h) Hammer On  (p) Pull Off  (b) Bend (r) Release (v) Vibrato

E|---------------------------------------------------------------------------
B|---------------------------------------------------------------------------
G|---------------9-------------------------------------9---------------------
D|-----------10---------------7--------------------10------------------------
A|-----7h10-------------12\7-----------------7h10---------------------10--7--
E|--8----------------------------5--------8---------------------12\7---------



E|---------------------------------------------------------------------------
B|---------------------------------------------------------------------------
G|---------------9-------------------------------------9---------------------
D|-----------10---------------7--------------------10------------------------
A|-----7h10-------------12\7-----------------7h10---------------------10--7--
E|--8----------------------------5--------8---------------------12\7---------



E|--------------------------------------------------------------------------------10--
B|----------------------------------------------------------------------------10------
G|----------------------------------11------------------------------------11----------
D|--------------------------------------12----------------------------12--------------
A|--10--------10--12----------9/12--------------10--------10--12----------------------
E|------10\7--------------10------------------------10\7------------------------------



E|------------------------------------------------------------------------------
B|------------------------10--------------------------------------10------------
G|-----9---------------9-----------------------9---------------9----------------
D|--9-----6-------------------10-----7------9-----6-------------------10-----7--
A|--------------7-----------------7---------------------7-----------------7-----
E|-----------7---------------------------------------7--------------------------



E|--------------------------------------------------------------------------------10--
B|----------------------------------------------------------------------------10------
G|----------------------------------11------------------------------------11----------
D|--------------------------------------12----------------------------12--------------
A|--10--------10--12----------9/12--------------10--------10--12----------------------
E|------10\7--------------10------------------------10\7------------------------------



E|--------------------------------------------------------------------------------10--
B|----------------------------------------------------------------------------10------
G|----------------------------------11------------------------------------11----------
D|--------------------------------------12----------------------------12--------------
A|--10--------10--12----------9h12--------------10--------10--12----------------------
E|------10\7--------------10------------------------10\7------------------------------
http://www.guitartabcreator.com
Guitar Tab Creator is intended to store guitar tab created through the tool. It currently does not support in-line text editing. Any text you place in here will be lost. If you need to comment on your tab, please use the "Tab Notes" section located below.