womp

(/) Slide Up  (\) Slide Down  (h) Hammer On  (p) Pull Off  (b) Bend (r) Release (v) Vibrato
E|-----0-----0-----0-----0-----0-----0-----0-----0-----0-----0-----0-----0--------------------------
B|--3-----3-----3-----3-----2-----2-----2-----2-----0-----0-----0-----0--------2-----2-----2-----2--
G|--------------------------------------------------------------------------2-----2-----2-----2-----
D|--------------------------------------------------------------------------------------------------
A|--------------------------------------------------------------------------------------------------
E|--------------------------------------------------------------------------------------------------



E|-----0-----0-----0-----0-----0-----0-----0-----0--4-----4-----4-----4-----5-----5-----5-----5-----
B|--3-----3-----3-----3-----2-----2-----2-----2--------5-----5-----5-----5-----7-----7-----7-----7--
G|--------------------------------------------------------------------------------------------------
D|--------------------------------------------------------------------------------------------------
A|--------------------------------------------------------------------------------------------------
E|--------------------------------------------------------------------------------------------------



E|--
B|--
G|--
D|--
A|--
E|--



E|--------------------------------------------------
B|--------------------------------------------------
G|--------------------------------------------------
D|--------------------------------------------------
A|--0--0--0--0--0--0--0--0--0--0--0--0--0--0--0--0--
E|--------------------------------------------------
http://www.guitartabcreator.com
Guitar Tab Creator is intended to store guitar tab created through the tool. It currently does not support in-line text editing. Any text you place in here will be lost. If you need to comment on your tab, please use the "Tab Notes" section located below.