star spangled banner begging

(/) Slide Up  (\) Slide Down  (h) Hammer On  (p) Pull Off  (b) Bend (r) Release (v) Vibrato


E|--------------------------------------------------------------------------------------
B|--------------------------------------------------------------------------------------
G|--------------------------------------------------------------------------------------
D|----------------------------------------------------------------------------------14--
A|--10--------------10------------------10----------10--------------10----------14------
E|------10--12--14------10--17--14--10------12--14------10--12--14------10--17----------



E|-----------------------------------
B|-----------------------------------
G|-----------------------------------
D|-----------------------------------
A|------12------8--12--10--10--7--3--
E|--10------10-----------------------
http://www.guitartabcreator.com
Guitar Tab Creator is intended to store guitar tab created through the tool. It currently does not support in-line text editing. Any text you place in here will be lost. If you need to comment on your tab, please use the "Tab Notes" section located below.