Sweet Child O Mine- Intro Riff (original key)

(/) Slide Up  (\) Slide Down  (h) Hammer On  (p) Pull Off  (b) Bend (r) Release (v) Vibrato


E|------------------14------13----------------------14------13------
B|------14------------------------------14--------------------------
G|----------13--11------13------13----------13--11------13------13--
D|--11------------------------------11------------------------------
A|------------------------------------------------------------------
E|------------------------------------------------------------------



E|------------------14------13----------------------14------13------
B|------14------------------------------14--------------------------
G|----------13--11------13------13----------13--11------13------13--
D|--13------------------------------13------------------------------
A|------------------------------------------------------------------
E|------------------------------------------------------------------



E|------------------14------13----------------------14------13------
B|------14------------------------------14--------------------------
G|--11------13--11------13------13--11------13--11------13------13--
D|------------------------------------------------------------------
A|------------------------------------------------------------------
E|------------------------------------------------------------------



E|------------------14------13----------------------14------13------
B|------14------------------------------14--------------------------
G|----------13--11------13------13----------13--11------13------13--
D|--11------------------------------11------------------------------
A|------------------------------------------------------------------
E|------------------------------------------------------------------



E|--11--------------11------13------14------13------11--------------
B|----------14----------------------------------------------14------
G|------13------13------13------13------13------13------13------13--
D|------------------------------------------------------------------
A|------------------------------------------------------------------
E|------------------------------------------------------------------
http://www.guitartabcreator.com
Guitar Tab Creator is intended to store guitar tab created through the tool. It currently does not support in-line text editing. Any text you place in here will be lost. If you need to comment on your tab, please use the "Tab Notes" section located below.