Sweet Child O Mine- Breaks

(/) Slide Up  (\) Slide Down  (h) Hammer On  (p) Pull Off  (b) Bend (r) Release (v) Vibrato

Solo Break 1

E|----------------------------------------------------------------------------------------------------
B|----------------------------------------------------------------------------------15--15b17---------
G|--14--12--11v--14--12--11v--14--12-------14--12-------14--12--14b16r14p12--14b16--------------------
D|------------------------------------14v----------14v-----------------------------------------14b16--
A|----------------------------------------------------------------------------------------------------
E|----------------------------------------------------------------------------------------------------


Solo Break 2

E|---------------------------------------------------------------------------
B|---------------------------------------------------------------------------
G|--14--12--11v--14--12--11v--14--12-------14--12-------14--12--12b14r12-----
D|------------------------------------14v----------14v-----------------------
A|---------------------------------------------------------------------------
E|---------------------------------------------------------------------------



E|-----------------------10---------------------------------------------------------------
B|---------------------------------------------------------------15/13--17--17/15--15/13--
G|--11b12r11------11b12------12r11--14--12--11v--14--12--11--14---------------------------
D|------------12--------------------------------------------------------------------------
A|----------------------------------------------------------------------------------------
E|----------------------------------------------------------------------------------------



E|-------------------------------------------------------------17--
B|--12b13r12------------------------------15--15b17r15--17b19------
G|------------12------14b16r14p12--14b16---------------------------
D|----------------12-----------------------------------------------
A|-----------------------------------------------------------------
E|-----------------------------------------------------------------
http://www.guitartabcreator.com
Guitar Tab Creator is intended to store guitar tab created through the tool. It currently does not support in-line text editing. Any text you place in here will be lost. If you need to comment on your tab, please use the "Tab Notes" section located below.