More than a feeling by Boston

(/) Slide Up  (\) Slide Down  (h) Hammer On  (p) Pull Off  (b) Bend (r) Release (v) Vibrato


Intro & Verse

E|-----------3--2--------------------------------
B|-----3-----------3-----------3--------3-----3--
G|--------2-----------0-----0--------0-----------
D|--0--------------------------------------------
A|-----------------------3--------2--------------
E|-----------------------------------------3-----
Play this three times for the verse


On the fourth time play...
E|-----------3--2--------------------0-----------------------3-----------
B|-----3-----------3-----------3--------3-----3--------3--------3-----0--
G|--------2-----------0-----0-----0--------0--------0-----0--------0-----
D|--0--------------------------------------------------------------------
A|-----------------------3-----------------------2-----------------------
E|-----------------------------------------------------------------------


Pre Chorus Lead Lick

E|-------------------------------------------------------
B|--12b13--12--12b13r12--10v--12b13r12--10h12p10--8v--v--
G|-------------------------------------------------------
D|-------------------------------------------------------
A|-------------------------------------------------------
E|-------------------------------------------------------

Chorus Chords

G C Em D

E|--3--3--7--5--
B|--3--5--8--7--
G|--4--5--9--7--
D|--5--5--9--7--
A|--5--3--7--5--
E|--3-----------
Guitar Tab Creator is intended to store guitar tab created through the tool. It currently does not support in-line text editing. Any text you place in here will be lost. If you need to comment on your tab, please use the "Tab Notes" section located below.