DeltaBlues

(/) Slide Up  (\) Slide Down  (h) Hammer On  (p) Pull Off  (b) Bend (r) Release (v) Vibrato
E|--0--0--0--0--0--0--0--0--0--0----------0--
B|--3--3--2--2--3--3--2--2--1--1----------0--
G|--4--4--3--3--4--4--3--3--2--2--0h1-----1--
D|-------------------------------------------
A|-------------------------------------2-----
E|--0-----0-----0-----0-----0----------------



E|-----2-----2-----2-----------2-----2-----2--------
B|-----1-----1-----1-----------1-----1-----1--------
G|-----1-----1-----1-----------1-----1-----1--------
D|-----1-----1-----1-----------1-----1-----1--------
A|--0-----0-----0-----------0-----0-----0-----------
E|--------------------3--0--------------------3--0--



E|-----2-----2-----2-----------2-----2-----2-----------2-----2--
B|-----1-----1-----1-----------1-----1-----1-----------0-----0--
G|-----1-----1-----1-----------1-----1-----1-----------2-----2--
D|-----1-----1-----1-----------1-----1-----1--------------------
A|--0-----0-----0-----------0-----0-----0-----0--1--2--0--0--0--
E|--------------------3--0--------------------------------------
http://www.guitartabcreator.com
Guitar Tab Creator is intended to store guitar tab created through the tool. It currently does not support in-line text editing. Any text you place in here will be lost. If you need to comment on your tab, please use the "Tab Notes" section located below.