Boston- more than a feeling (part 2)

(/) Slide Up  (\) Slide Down  (h) Hammer On  (p) Pull Off  (b) Bend (r) Release (v) Vibrato


E|---------------------------------------
B|-----------7--7--8--7h8p7--------8b10--
G|--6--7--9------------------9--7--------
D|---------------------------------------
A|---------------------------------------
E|---------------------------------------



E|---------------------------
B|-----8--7--5h7p5-----5--7--
G|--7---------------7--------
D|---------------------------
A|---------------------------
E|---------------------------



E|------------------------------------
B|-----8--7h8b7-----------------------
G|--7------------9--7--11r9--7--6-----
D|---------------------------------7--
A|------------------------------------
E|------------------------------------



E|----------------------------------
B|--8--7--7--8--7h8b7--------10b12--
G|---------------------9--7---------
D|----------------------------------
A|----------------------------------
E|----------------------------------



E|--------------------------------------------
B|--10--8--7h8p7-----7-----8--7h8p7-----------
G|----------------9-----7------------9--7--9--
D|--------------------------------------------
A|--------------------------------------------
E|--------------------------------------------



E|------------------------9h10p9-------------
B|-----7--5h7p5-------------------12--10b12--
G|--7------------7--6--7---------------------
D|-------------------------------------------
A|-------------------------------------------
E|-------------------------------------------



E|--3--0--0--2--
B|--0--3--3--3--
G|--0--2--0--2--
D|--0--0--2--0--
A|--x--x--------
E|--3--2--------
http://www.guitartabcreator.com
Guitar Tab Creator is intended to store guitar tab created through the tool. It currently does not support in-line text editing. Any text you place in here will be lost. If you need to comment on your tab, please use the "Tab Notes" section located below.