Pompeii Bass Cover

(/) Slide Up  (\) Slide Down  (h) Hammer On  (p) Pull Off  (b) Bend (r) Release (v) Vibrato


E|------------------------------
B|------------------------------
G|--7--14--11--9--7--14--11--9--
D|------------------------------
A|------------------------------
E|------------------------------



E|------------------------------------------------------------------------------------------------
B|------------------------------------------------------------------------------------------------
G|------------------------------------------------------------------------------------------------
D|------------------------------------------------------------------------------------------------
A|--5--5----5--7-------------3-----------------------------5--5----5--7-------------3-------------
E|----------------5--5----5-----2--2----2--0--0----0--0------------------5--5----5-----2--2-------



E|-----------------------
B|-----------------------
G|-----------------------
D|-----------------------
A|-----------------------
E|--2--2----2----2----0--



E|--------------------------------------------------------------------------------------------------
B|--------------------------------------------------------------------------------------------------
G|--------------------------------------------------------------------------2--2--2--2--2--2--2--2--
D|--------------------------------------------------------------------------------------------------
A|--5--5--5--5--5--5--5--7--------------------------------------------------------------------------
E|--------------------------5--5--5--5--5--5--5--0--2--2--2--2--2--2--2--2--------------------------



E|--------------------------------------------------------------------------------------------------
B|--------------------------------------------------------------------------------------------------
G|--------------------------------------------------------------------------2--2--2--2--2--2--2--2--
D|--------------------------------------------------------------------------------------------------
A|--5--5--5--5--5--5--5--7--------------------------------------------------------------------------
E|--------------------------5--5--5--5--5--5--5--0--2--2--2--2--2--2--2--2--------------------------



E|--------------------------------------------------------------------------------------------------
B|--------------------------------------------------------------------------------------------------
G|--------------------------------------------------------------------------------------------------
D|--------------------------------------------------------------------------------------------------
A|--5--5--5--5--------------7--7--7--0--16--14--5--5--5--5--------------7--7--7--0--16--14----------
E|--------------5--5--5--0----------------------------------5--5--5--0------------------------------



E|----------------------------------------------------------------------------------------------
B|----------------------------------------------------------------------------------------------
G|------19------19------19------19------14------14------13------13-----11-----11-----11-----11--
D|----------------------------------------------------------------------------------------------
A|--17------17------17------17------12------12------11------11------9------9------9------9------
E|----------------------------------------------------------------------------------------------



E|-------------------------------------------------------------------------------------------------
B|-------------------------------------------------------------------------------------------------
G|-----9-----9-----9-----9------19------19------19------19------14------14------13------13-----11--
D|-------------------------------------------------------------------------------------------------
A|--7-----7-----7-----7-----17------17------17------17------12------12------11------11------9------
E|-------------------------------------------------------------------------------------------------



E|-----------------------------------------------
B|-----------------------------------------------
G|-----11-----11-----11-----9-----9-----9-----9--
D|-----------------------------------------------
A|--9------9------9------7-----7-----7-----7-----
E|-----------------------------------------------
http://www.guitartabcreator.com
Guitar Tab Creator is intended to store guitar tab created through the tool. It currently does not support in-line text editing. Any text you place in here will be lost. If you need to comment on your tab, please use the "Tab Notes" section located below.