You Are Working

(/) Slide Up  (\) Slide Down  (h) Hammer On  (p) Pull Off  (b) Bend (r) Release (v) Vibrato
E|--------0-----------0-----------0-----------0-----------4-----------4-----------7-----------7-----
B|-----0-----0-----0-----0-----0-----0-----0-----0-----5-----5-----5-----5-----5-----5-----5-----5--
G|--2-----------2-----------0-----------0-----------5-----------5-----------7-----------7-----------
D|--------------------------------------------------------------------------------------------------
A|--------------------------------------------------------------------------------------------------
E|--------------------------------------------------------------------------------------------------



E|-----------0-----------0-----------0-----------0-----------4-----------4-----------4-----------4--
B|-----0-----------0-----------0-----------0-----------5-----------5-----------5-----------5--------
G|--2-----2-----2-----2-----0-----0-----0-----0-----5-----5-----5-----5-----7-----7-----7-----7-----
D|--------------------------------------------------------------------------------------------------
A|--------------------------------------------------------------------------------------------------
E|--------------------------------------------------------------------------------------------------



E|-0-0-0-0-0-0-0-0-0-0-0-0-0-0-0-0-0--0--0--0--0--0--0--0--0-0-0-0-0-0-0-0-
B|-2-2-2-4-5-5-5-7-9-9-9-9-9-9-9-9-12-12-12-12-12-12-12-12-4-4-4-4-4-4-5-5-
G|---------------------------------------------------------0-0-0-0-0-0-0-0-
D|-------------------------------------------------------------------------
A|-------------------------------------------------------------------------
E|-------------------------------------------------------------------------
http://www.guitartabcreator.com
Guitar Tab Creator is intended to store guitar tab created through the tool. It currently does not support in-line text editing. Any text you place in here will be lost. If you need to comment on your tab, please use the "Tab Notes" section located below.