song

(/) Slide Up  (\) Slide Down  (h) Hammer On  (p) Pull Off  (b) Bend (r) Release (v) Vibrato

E|--0--0--0--x--0--0--0--0--0--0--0--0--0--0--0--0--0--0--
B|--3--3--3--x--1--1--1--1--1--0--0--0--0--1--1--1--1--1--
G|--0--0--0--x--0--0--0--0--0--0--0--0--0--0--0--0--0--0--
D|--2--2--2--x--2--2--2--2--2--2--2--2--2--2--2--2--2--2--
A|--2--2--2--x--0--0--0--0--0--3--3--3--3--0--0--0--0--0--
E|--0--0--0--x--x--x--x--x--x--x--x--x--x--x--x--x--x--x--



E|--0--0--0--x--0--0--0--0--0--0--0--0--
B|--1--1--1--x--0--0--0--0--0--0--0--0--
G|--2--2--2--x--0--0--0--0--0--0--0--0--
D|--3--3--3--x--0--0--0--0--0--2--2--2--
A|--------------x--x--x--x--x--2--2--2--
E|--------------3--3--3--3--3--0--0--0--



E|------
B|--12--
G|------
D|--12--
A|--12--
E|------
http://www.guitartabcreator.com
Guitar Tab Creator is intended to store guitar tab created through the tool. It currently does not support in-line text editing. Any text you place in here will be lost. If you need to comment on your tab, please use the "Tab Notes" section located below.