A sad song

(/) Slide Up  (\) Slide Down  (h) Hammer On  (p) Pull Off  (b) Bend (r) Release (v) Vibrato
E|-----------------------------------------------------------------
B|---------3---------------1---------------0---------------0-------
G|-----0-----0---0-----0-----0---0-----0-----0---0-----0-----0---0-
D|---2---2-----2-----2---2-----2-----2---2-----2-----2---2-----2---
A|-2---------------0---------------3---------------0---------------
E|-----------------------------------------------------------------



E|---------0-------------------------------------------------------
B|-----1-----1---1---------0---------------0---------------1-------
G|---2---2-----2-------------0---0-----------0---0-----0-----0---0-
D|-3-------------------0-------0-------2-------2-----2---2-----2---
A|-------------------2---2-----------2---2---------0---------------
E|-----------------3---------------0-------------------------------



E|-------------------------0------------------------------------------------
B|---------3-----------------1-------------1---------------3----------------
G|-----0-----0---0-----0-------0-------2-----2---2-----4-----4---4----------
D|---2---2-----2-----2---2-------2---3---3-----3-----5---5-----5------------
A|-2---------------0-----------------------------------------------5v-------
E|---------------------------------1---------------3------------------9\1p0-



E|-0-0-0-0-0-0-0-0-0-0-0-0-0-0-0-0-
B|-0-3-3-3-1-1-1-1-0-0-0-0-1-1-1-1-
G|-0-0-0-0-0-0-0-0-0-0-0-0-0-0-0-0-
D|-2-2-2-2-2-2-2-2-2-2-2-2-2-2-2-2-
A|-2---------------3-3-3-3---------
E|-0-------------------------------



E|-0-0-0-0-0-0-0-0-0-0-0-0-0-0-0-0-|-0-0-0-0-0-0-0-0-
B|-1-1-1-1-0-0-0-0-0-0-0-0-1-1-1-1-|-3-3-3-3-1-1-1-1-
G|-2-2-2-2-0-0-0-0-0-0-0-0-0-0-0-0-|-0-0-0-0-0---0---
D|-3-3-3-3-0-0-0-0-2-2-2-2-2-2-2-2-|-2-2-2-2-2-------
A|---------x-x-2-3-2-2-2-2---------|-2-2-2-2---------
E|---------3-3-3-3-0-0-0-0---------|-0-0-0-0---------



E|-0-0-0-0-0-0-0-0-0-0-0-0-0-0-0-0-0-0-0-0-0-0-0-0-0-0-0-0-0-0-0-0-
B|-3-3-3-3-3-3-3-3-1-1-1-1-1-1-1-1-0-0-0-0-0-0-0-0-1-1-1-1-1-1-1-1-
G|-0-0-0-0-0-0-0-0-0-0-0-0-0-0-0-0-0-0-0-0-0-0-0-0-0-0-0-0-0-0-0-0-
D|-2-2-2-2-2-2-2-2-2-2-2-2-2-2-2-2-2-2-2-2-2-2-2-2-2-2-2-2-2-2-2-2-
A|---------------------------------3-3-3-3-3-3-3-3-----------------
E|-----------------------------------------------------------------



E|-1-1-1-1-1-1-1-1-1-1-1-1-1-1-1-1-0-0-0-0-0-0-0-0-0-0-0-0-0-0-0-0-
B|-1-1-1-1-1-1-1-1-0-0-0-0-0-0-0-0-0-0-0-0-0-0-0-0-1-1-1-1-1-1-1-1-
G|-2-2-2-2-2-2-2-2-0-0-0-0-0-0-0-0-0-0-0-0-0-0-0-0-0-0-0-0-0-0-0-0-
D|-3-3-3-3-3-3-3-3-0-0-0-0-0-0-0-0-2-2-2-2-2-2-2-2-2-2-2-2-2-2-2-2-
A|-----------------2-2-2-2-2-2-2-2-2-2-2-2-2-2-2-2-----------------
E|-----------------3-3-3-3-3-3-3-3-0-0-0-0-0-0-0-0-----------------



E|-0-0-0-0-0-0-0-0-0-0-0-0-0-0-0-0-
B|-1-1-1-1-0-0-0-0-0-0-0-0-1-1-1-1-
G|-0-0-0-0-0-0-0-0-0-0-0-0-0---0---
D|-2-2-2-2-0-0-0-0-2-2-2-2-2-------
A|-3-3-3-3-x-x-x-x-2-2-2-2---------
E|---------3-3-3-3-0-0-0-0---------



E|-1-1-x-x-x-x-1-1-x-x-x-x-0-0-0-0-0-0-0-0-|-0-0-0-0-0-0-0-0-
B|-1-1-x-x-x-x-0-0-x-x-x-x-0-0-0-0-1-1-1-1-|-3-3-3-3-1-1-1-1-
G|-2-2-x-x-x-x-0-0-x-x-x-x-0-0-0-0-0-0-0-0-|-0-0-0-0-0---0---
D|-3-3-x-x-x-x-0-0-x-x-x-x-2-2-2-2-2-2-2-2-|-2-2-2-2-2-------
A|-------------2-2-x-x-x-x-2-2-2-2---------|-----------------
E|-------------3-3-x-x-x-x-0-0-0-0---------|-----------------



E|-------------------------0-------------0-------0---------3-----0-
B|-------1-------1-----------1---1-----1-------1-------1-----1-----
G|-----0-------0-------0-------0-----2-------2-------2---2-----2---
D|---2-------2-------2---2---------3-------3-------3---------------
A|-3-------3-------3-----------------------------------------------
E|-----------------------------------------------------------------



E|-----------------------------------------------------0----------
B|-------1-------1-----1-----------------------0---------0h3------
G|-----0-------0-----------0-----------1---------------------1----
D|---2-------2-------2---2-----0-----2-------2-------2---------2v-
A|-0-------0-------0---------0-----2-------2-------2--------------
E|-------------------------------0-------0-------0----------------



E|--0--0--0--0--3--3--3--3--1--1--1--1--3--3--3--3--0--0--0--0--3--3--3--3--0--0--0--0--0--0--0--0--
B|--1--1--1--1--1--1--1--1--1--1--1--1--1--1--1--1--1--1--1--1--1--1--1--1--0--0--0--0--3--3--0--0--
G|--0--0--0--0--0--0--0--0--2--2--2--2--2--2--2--2--2--2--2--2--2--2--2--2--1--1--1--1--1--1--1--1--
D|--2--2--2--2--2--2--2--2--3--3--3--3--3--3--3--3--2--2--2--2--2--2--2--2--2--2--2--2--2--2--2--2--
A|--3--3--3--3--3--3--3--3--------------------------------------------------2--2--2--2--2--2--2--2--
E|--------------------------------------------------------------------------0--0--0--0--0--0--0--0--
http://www.guitartabcreator.com
Guitar Tab Creator is intended to store guitar tab created through the tool. It currently does not support in-line text editing. Any text you place in here will be lost. If you need to comment on your tab, please use the "Tab Notes" section located below.