Numero Uno

(/) Slide Up  (\) Slide Down  (h) Hammer On  (p) Pull Off  (b) Bend (r) Release (v) Vibrato
E|----------12-13-13/15-13-12-------------12-13-17-15-13-12----------12-10-8------------10-8\7------
B|----13h15-------------------13----13h15----------------------10h13---------10----8h10--------8----
G|-14----------------------------12-------------------------12------------------10---------------9v-
D|--------------------------------------------------------------------------------------------------
A|--------------------------------------------------------------------------------------------------
E|--------------------------------------------------------------------------------------------------



E|----------------------------------15-13-12-------------------------------------
B|-10----10-------12-------13----------------12----15-13-12\10-------------------
G|----12-------14-------16-------------------------------------------------------
D|----------12-------14-------14-14-------------12-------------------14-12\11----
A|-------------------------------------------------------------12/14----------12-
E|-------------------------------------------------------------------------------



E|----------------------------------15-13-12-------------------------------------
B|-10----10-------12-------13----------------12----15-13-12\10-------------------
G|----12-------14-------16----------------------------------------------------14-
D|----------12-------14-------14-14-------------12-------------------14-12\11----
A|-------------------------------------------------------------12/14-------------
E|-------------------------------------------------------------------------------



E|--7--5-------------------------7--5----------------------7--5-----------------------------------
B|--------7--7--5/7--5--7--7-----------7--7--5/7--5--7--7--------7--7--7--5/7--5--7--7--5---------
G|-----------x-------x-----x--------------x-------x-----x-----------x--x-------x--x--x--6---------
D|-----------5-------7-----5--------------5-------7-----4-----------4--5-------7--9--4------------
A|------------------------------------------------------------------------------------------------
E|-----------------------------------------------------------------------------------------7\5/7--



E|---------
B|---------
G|---------
D|--12/14--
A|---------
E|---------
http://www.guitartabcreator.com
Guitar Tab Creator is intended to store guitar tab created through the tool. It currently does not support in-line text editing. Any text you place in here will be lost. If you need to comment on your tab, please use the "Tab Notes" section located below.