Nathan!! ------------------------------------------------> when you click this you have to press edit( it will be next to the view button. Also, you will see a fretboard. DON'T TOUCH!! and read the tab notes on the bottom.

(/) Slide Up  (\) Slide Down  (h) Hammer On  (p) Pull Off  (b) Bend (r) Release (v) Vibrato
E|-------------|-------------------------|-------------------|-------|-
B|-------------|-------------------------|-------------------|-15b15-|-
G|-------12-14b|-12-11----11\9-----------|-12-11-14----------|-------|-
D|-12-14-------|-------12------10--------|----------12-------|-------|-
A|-------------|------------------10-----|-------------12----|-------|-
E|-------------|---------------------12v-|----------------14-|-------|-



E|----------12h14h15-|----------14h15h17-|-15-14----14h15v-/
B|-12h13h15----------|-14h15h17----------|-------15---------
G|-------------------|-------------------|------------------
D|-------------------|-------------------|------------------
A|-------------------|-------------------|------------------
E|-------------------|-------------------|------------------



E|----|------------------|--------------------|-----------------------|-17v-
B|----|-8b8--------------|-12b13-12b13-12h13v-|-13-12-----------------|-----
G|----|-----7h9-9b9------|--------------------|-------14-12-14b16-14v-|-----
D|----|-------------7h9v-|--------------------|-----------------------|-----
A|----|------------------|--------------------|-----------------------|-----
E|-0v-|------------------|--------------------|-----------------------|-----



E|-----7-----8-----|-----7-----8------
B|--5-----7-----9--|--5-----7---------
G|--5-----7-----9--|--5-----7-----9v--
D|--5-----7-----9--|--5-----7---------
A|-----------------|------------------
E|-----------------|------------------
http://www.guitartabcreator.com
Guitar Tab Creator is intended to store guitar tab created through the tool. It currently does not support in-line text editing. Any text you place in here will be lost. If you need to comment on your tab, please use the "Tab Notes" section located below.