Meltdown

(/) Slide Up  (\) Slide Down  (h) Hammer On  (p) Pull Off  (b) Bend (r) Release (v) Vibrato
E|-------------------------------------------------------------------------------10-9v-
B|-10-9-7---7-----------------------------------------7---7-9-10/12-10-9h10h9h10-------
G|--------9---9-7-6-9-7-6---6-------6h7---6h7h9-6h7h9---9------------------------------
D|------------------------9---9-7-9-----9----------------------------------------------
A|-------------------------------------------------------------------------------------
E|-------------------------------------------------------------------------------------



E|-5----------------------------------------------------------
B|---7--------------------------------------------------------
G|-----6-7-6------------------------------------------------6-
D|-----------9-7-9/11-9-7-6-9-7-6---6-------6h7p6h7/9-7-6h7-7-
A|--------------------------------9---9-7h9-------------------
E|------------------------------------------------------------



E|------------------------------
B|------------------------------
G|-6-6-6-6-7-x-7-6-6-6-6-----9v-
D|-7-7-7-7-7-x-7-7-7-7-7---9----
A|-----------------------7------
E|------------------------------



E|-------------------------------------------------
B|-------------------------------------------------
G|-6-6-6-6-9-9-9-7-7-7-7-7-7-4-4-4-4-9-9-7-6-6-6-6-
D|-7-7-7-7-7-7-7-7-7-7-7-7-7-6-6-6-6-6-6-6-7-7-7-7-
A|-------------------------------------------------
E|-------------------------------------------------



E|-----------------------------------------------------------------------------------
B|-----------------------------------------------------------------------------------
G|-6-6-6-6-7-7-7-9-9-9-9-7-7-6-4-4-4-4-6-6-6-7-7-7-6-6-4-2-2-2-2-------4-4-4-4-------
D|-7-7-7-7-7-7-7-7-7-7-7-7-7-7-6-6-6-6-6-6-6-6-6-6-6-6-6-4-4-4-4---7---6-6-6-6---9---
A|---------------------------------------------------------------5---5---------7---7-
E|-----------------------------------------------------------------------------------



E|------------------------------
B|------------------------------
G|-6-6-6-6-7-x-7-6-6-6-6-----9v-
D|-7-7-7-7-7-x-7-7-7-7-7---9----
A|-----------------------7------
E|------------------------------



E|-----------------
B|-----------9-----
G|-----9-----------
D|---9-----9-----9-
A|-7-----7-----7---
E|-----------------



E|-------------7--------------------------------------
B|-10-9-7h9h10---10p9-7-9b10-------10-9-7-------------
G|----------------------------------------9\7/9\7-9---
D|----------------------------------------------------
A|----------------------------------------------------
E|----------------------------------------------------



E|-------------7--------9b10v---------------------------------------
B|-10-9-7h9h10---10p9p7--------------10-9-7---7---------------------
G|------------------------------------------9---9-7-6-9-7-6---6-----
D|----------------------------------------------------------9---9-7-
A|------------------------------------------------------------------
E|------------------------------------------------------------------



E|-------------------------------------------------
B|-------------------------------------------------
G|-------------7-7-7-7-7-7-6-6-6-6-9\6-4-4-4-4-4-4-
D|-------------7-7-7-7-7-7-7-7-7-7-----6-6-6-6-6-6-
A|-7-7-7-7-7-7-------------------------------------
E|-5-5-5-5-5-5-------------------------------------



E|---------------------
B|---------------------
G|-----6-4-----4h6-----
D|---6-----4/6---------
A|-7---------------4/7-
E|---------------------



E|--------10-7h9-12-9h10-14-10h12-12-9h10-10-7h9-------------------------------
B|-10-7h9----------------------------------------14-10h12-12-9h10---10b12-9b10-
G|-----------------------------------------------------------------------------
D|-----------------------------------------------------------------------------
A|-----------------------------------------------------------------------------
E|-----------------------------------------------------------------------------



E|-17-16-14----14----------------------------------------------------------------
B|----------17----17-15-14-17-15-14----14-------------15-------15h17----15h17h19-
G|----------------------------------16----16-14h16h18----16h18-------18----------
D|-------------------------------------------------------------------------------
A|-------------------------------------------------------------------------------
E|-------------------------------------------------------------------------------



E|----------19-17b19----------------------------------------------------------------------
B|-15h17h19------------10-9-7---7-----------------------------------------7---7-9-10-12---
G|----------------------------9---9-7-6-9-7-6---6-------6h7---6h7h9-6h7h9---9-------------
D|--------------------------------------------9---9-7-9-----9-----------------------------
A|----------------------------------------------------------------------------------------
E|----------------------------------------------------------------------------------------



E|--------------------7------7-9----7-9-10-7-9-10-12-10-12-14-12-10-9-12-10-9-7-10-9-7-5-
B|-9h10---10-9-7-9-10---9-10-----10------------------------------------------------------
G|---------------------------------------------------------------------------------------
D|---------------------------------------------------------------------------------------
A|---------------------------------------------------------------------------------------
E|---------------------------------------------------------------------------------------



E|-4---4-5-7-5-4-4-4-5-------------------------------------------------------
B|---5-----------5-5-5----10-9-7---7-----------------------------------------
G|-------------------------------9---9-7-6-9-7-6---6-------------------------
D|-----------------------------------------------9---9-7-4-7p6p4-------------
A|---------------------------------------------------------------7p5p4-------
E|---------------------------------------------------------------------9p7p5-



E|---------------------------------------5--x--5--
B|------------------------7-----------9--5--x--5--
G|------------------------7--------9-----6--7--6--
D|--4--7p6p4--------------7-----9--------7--7--7--
A|------------7p6p4-------5--7-----------7--7--7--
E|-------------------5/7--x--------------5--5--5--
http://www.guitartabcreator.com
Guitar Tab Creator is intended to store guitar tab created through the tool. It currently does not support in-line text editing. Any text you place in here will be lost. If you need to comment on your tab, please use the "Tab Notes" section located below.