1

(/) Slide Up  (\) Slide Down  (h) Hammer On  (p) Pull Off  (b) Bend (r) Release (v) Vibrato
E|-----------------------------------------------------------------
B|-----5---------3-----5-------1-------5---------3-----5---5---5---
G|-2-5---4-----4---2-5---4---2---2-2-5---4-----4---2-5---5---5---5-
D|---------3-5-------------3---------------3-5---------------------
A|-----------------------------------------------------------------
E|-----------------------------------------------------------------



E|--------------------------------------------------------------------------
B|--------------------------------------------------------------------------
G|-9-9-9-9-9-9-9-9-5-5-5-5-5-5-5-5-7-7-7-7-7-7-7-10-10-10-9--9--9--9--9-----
D|-7-7-7-7-7-7-7-7-7-7-7-7-7-7-7-7-9-9-9-9-9-9-9-9--9--9--10-10-10-10-10-10\
A|--------------------------------------------------------------------------
E|--------------------------------------------------------------------------



E|-----------------------------------------------------------------
B|-----------------------------------------------------------------
G|---------------9-9-9-9-9-9-9-9-------------------7-7-7-4-4-4-4-4-
D|-7-7-7-7-7-7-7-7-7-7-7-7-7-7-7---5-5-5-5-5-5-5-5-5-5-5-2-2-2-2-2-
A|-5-5-5-5-5-5-5-----------------7\3-3-3-3-3-3-3-3-----------------
E|-----------------------------------------------------------------



E|----|---------------------------------------------------------------------------
B|----|---------------------------------------------------------------------------
G|----|---------------------------------------------------------------------------
D|----|-----------------7-7-7-10-10-10-10-10-10-----------------------5-------4---
A|-10-|-7-7-7-7-7-7-7-7-5-5-5-8--8--8--8--8--8----5-5-5-5-5-5-5-5-3-3-3-3-2-2-2-2-
E|-8--|-5-5-5-5-5-5-5-5-------------------------9\3-3-3-3-3-3-3-3-----------------



E|---------------------------------------------------------------------
B|---------------------------------------------------------------------
G|---------------------------------------------------------------------
D|---------------------------------------------------------------------
A|-----------------5-5-5-8-8-8-8-8-------------------3h5p3-2h3p2-0h2p0-
E|-5-5-5-5-5-5-5-5-----------------8\3-3-3-3-3-3-3-3-------------------



E|---------------3-3-1---1-----0-------0-----3-----3---3-3-3-----0-----0-----
B|-2-2-2---------3-3-3-----3-----1-1-1---1-----1-------0-0---0-----0-----0---
G|-2-2-2---------2-2-2-------2---0-0-0-----0-----0---0-0-0-----0-----0-----0-
D|-2-2-2---2-2-0-------0---------2-2-2-----------------0-0-------------------
A|-0-0-0-0-----------------------3-3-3-----------------2-2-------------------
E|-----------------------------------------------------3-3-------------------



E|--
B|--
G|--
D|--
A|--
E|--
http://www.guitartabcreator.com
Guitar Tab Creator is intended to store guitar tab created through the tool. It currently does not support in-line text editing. Any text you place in here will be lost. If you need to comment on your tab, please use the "Tab Notes" section located below.