IM - 138 Intermediate Ear Training Exercise 3B-2

(/) Slide Up  (\) Slide Down  (h) Hammer On  (p) Pull Off  (b) Bend (r) Release (v) Vibrato


E|-----------------------8--5--------5-----------------------------------------------------------
B|-----------------------------8--5--------------------------------------------------------------
G|-----------5--------------------------------7--5-----------------------------------5-----------
D|--7--5--7-----7--5--------------------7--5--------7--5--------------------7--5--7-----7--5-----
A|--------------------7-----------------------------------7--5--7--5--------------------------7--
E|--------------------------------------------------------------------8--5-----------------------



E|--8--5--------5--------------------------------------
B|--------8--5-----------------------------------------
G|-----------------------7--5--------------------------
D|-----------------7--5--------7--5--------------------
A|-----------------------------------7--5--7--5--------
E|-----------------------------------------------8--5--
http://www.guitartabcreator.com
Guitar Tab Creator is intended to store guitar tab created through the tool. It currently does not support in-line text editing. Any text you place in here will be lost. If you need to comment on your tab, please use the "Tab Notes" section located below.