Long Ride- The Audreys

(/) Slide Up  (\) Slide Down  (h) Hammer On  (p) Pull Off  (b) Bend (r) Release (v) Vibrato


E|-------------------------------------------------------------------------------------------------
B|-------------------------------------------------------------------------------------------------
G|--------1-----1--------1--------------------------1---------1------------1/4----4/6-----4--------
D|-----4--------2--2-----2--2--------------2--------2----2----2----2-------------------------------
A|--2-----------2--------2-----------2-----------2--2---------2------------------------------------
E|-----------0--0-----0--0--------------0-----0-----0---------0-------0----------------0-----0-----



E|-------------------------------------------------------------------------------------------------
B|-------------------------------------------------------------------------------------------------
G|------------------1-----1----------1-------------------------------------------------------------
D|--4/6-----2-------2-----2----2-----2-----2-----------6p4--2-----2/4----4-----4-----4-----4/7-----
A|------------------2-----2----------2-----------2----------------2-4-------4--4-----------4-7-----
E|-------0-----0----0--0--0-------0--0--0-----0-----0----------0-----h2--------2--2-----2--2-5-----



E|------------------------------
B|------------------------------
G|------------------------------
D|-----7-----7-------7----------
A|-----------7------------------
E|--5-----5--5----5-----5----5--
http://www.guitartabcreator.com
Guitar Tab Creator is intended to store guitar tab created through the tool. It currently does not support in-line text editing. Any text you place in here will be lost. If you need to comment on your tab, please use the "Tab Notes" section located below.