These Days

(/) Slide Up  (\) Slide Down  (h) Hammer On  (p) Pull Off  (b) Bend (r) Release (v) Vibrato

E|--------------
B|--------------
G|--------------
D|--------------
A|-----2-----5--
E|--0-----3-----



E|----------------------
B|----------------------
G|----------------------
D|--------9---------12--
A|-----7--------10------
E|--0--------0----------



E|--------------------------------
B|--------------------------------
G|-------------16-------------19--
D|---------14-------------17------
A|-----14-------------17----------
E|--0--------------0--------------
http://www.guitartabcreator.com
Guitar Tab Creator is intended to store guitar tab created through the tool. It currently does not support in-line text editing. Any text you place in here will be lost. If you need to comment on your tab, please use the "Tab Notes" section located below.