solo

(/) Slide Up  (\) Slide Down  (h) Hammer On  (p) Pull Off  (b) Bend (r) Release (v) Vibrato


E|--7-----6-----5-----4-----3--2-----------------------------------------------------------
B|-----7-----6-----5-----4--------0--1-----------------------------------------------------
G|--------------------------------------1--2-----------------------------------------------
D|--------------------------------------------0--2--3--2--------------0--2--3--2-----------
A|--------------------------------------------------------------3--2--------------------1--
E|--------------------------------------------------------3--2--------------------3--2-----



E|--------------------------------------3--2--3--3--2--------3--2--0--
B|--------------------0--1--0--2--3--4-----------------3--2-----------
G|--------------2--1--------------------------------------------------
D|--0--2--3--2--------------------------------------------------------
A|--------------------------------------------------------------------
E|--------------------------------------------------------------------
http://www.guitartabcreator.com
Guitar Tab Creator is intended to store guitar tab created through the tool. It currently does not support in-line text editing. Any text you place in here will be lost. If you need to comment on your tab, please use the "Tab Notes" section located below.