Complete melody

(/) Slide Up  (\) Slide Down  (h) Hammer On  (p) Pull Off  (b) Bend (r) Release (v) Vibrato


E|-----------------------3--0--
B|--------3--5-----3--5--------
G|--4--4--------4--------------
D|-----------------------------
A|-----------------------------
E|-----------------------------



E|-----------------------
B|-----2-----3--2--------
G|--2-----2--------2--1--
D|-----------------------
A|-----------------------
E|-----------------------



E|--------------------------------
B|--------------------------------
G|--2-----------------------------
D|-----0--------3-----2--3--------
A|-----------------3--------3--2--
E|--------0--1--------------------



E|--------------
B|--------------
G|--------------
D|--------------
A|--2-----2-----
E|-----3-----5--
http://www.guitartabcreator.com
Guitar Tab Creator is intended to store guitar tab created through the tool. It currently does not support in-line text editing. Any text you place in here will be lost. If you need to comment on your tab, please use the "Tab Notes" section located below.