sono troppo bravo

(/) Slide Up  (\) Slide Down  (h) Hammer On  (p) Pull Off  (b) Bend (r) Release (v) Vibrato


E|-----------------------------------------
B|-----------------------------------------
G|--------5--------4-----------2--------2--
D|-----------7--------5-----------4--2-----
A|--0--0--------0--------0--0--------------
E|-----------------------------------------



E|--0--3--0--0--
B|--1--2--3--1--
G|--0--3--4--2--
D|--2--0--4--3--
A|--------------
E|--------------
http://www.guitartabcreator.com
Guitar Tab Creator is intended to store guitar tab created through the tool. It currently does not support in-line text editing. Any text you place in here will be lost. If you need to comment on your tab, please use the "Tab Notes" section located below.