Nightfall

(/) Slide Up  (\) Slide Down  (h) Hammer On  (p) Pull Off  (b) Bend (r) Release (v) Vibrato

E|---------------------------------------------------------------------------15----------17-----
B|-------------------------------------------------------------------17--17------17--17---------
G|------------12------------12------------12---------14--16-------------------------------------
D|--14----14------14----14------14----14------14\17----------16--14-----------------------------
A|----------------------------------------------------------------------------------------------
E|----------------------------------------------------------------------------------------------



E|----------17b19--15h17p15--14h15p14--12--8\------8--8--7--7--7--5--5--5--3--3--2--
B|--17--17--------------------------------------------------------------------------
G|----------------------------------------------------------------------------------
D|----------------------------------------------------------------------------------
A|----------------------------------------------------------------------------------
E|----------------------------------------------------------------------------------



E|-----------------------------------------------------------------------------------------
B|--13--13--13--12--12--12--10--10--10--8--8--8--7------13--13--15--15--15--17--17--17-----
G|--12--12--12--11--11--11--9---9---9---7--7--7--6------12--12--14--14--14--16--16--16-----
D|-----------------------------------------------------------------------------------------
A|-----------------------------------------------------------------------------------------
E|-----------------------------------------------------------------------------------------



E|--12-----12--12--12-----12--12--12-------------12--12--12--12--12--12-----------------------
B|--15b17----------15b17----------15b17----------------------------------13p12------12/15-----
G|------------------------------------------------------------------------------14------------
D|--------------------------------------------------------------------------------------------
A|--------------------------------------------------------------------------------------------
E|--------------------------------------------------------------------------------------------



E|--------------------------------------------------------
B|--15--15--15--17b19--15--17b19--15----------------------
G|------------------------------------17--16--------------
D|--------------------------------------------17--16--14--
A|--------------------------------------------------------
E|--------------------------------------------------------
http://www.guitartabcreator.com
Guitar Tab Creator is intended to store guitar tab created through the tool. It currently does not support in-line text editing. Any text you place in here will be lost. If you need to comment on your tab, please use the "Tab Notes" section located below.