Don't Forget Me

(/) Slide Up  (\) Slide Down  (h) Hammer On  (p) Pull Off  (b) Bend (r) Release (v) Vibrato


E|--12v--15v--17v--19v--17v--13v--12--------------------------------------------------
B|------------------------------------15b17r13------15b17--13------13--17--13--17-----
G|----------------------------------------------14-------------14---------------------
D|------------------------------------------------------------------------------------
A|------------------------------------------------------------------------------------
E|------------------------------------------------------------------------------------



E|---------------------------------------------------------15----------15----------------------12--
B|------12--13------12--13------12h13------12--15------12----------12----------12--15------12------
G|--14----------14----------14---------14----------14----------14----------14----------14----------
D|-------------------------------------------------------------------------------------------------
A|-------------------------------------------------------------------------------------------------
E|-------------------------------------------------------------------------------------------------
http://www.guitartabcreator.com
Guitar Tab Creator is intended to store guitar tab created through the tool. It currently does not support in-line text editing. Any text you place in here will be lost. If you need to comment on your tab, please use the "Tab Notes" section located below.