1549

(/) Slide Up  (\) Slide Down  (h) Hammer On  (p) Pull Off  (b) Bend (r) Release (v) Vibrato

E|-----------------------------------------------------------
B|--8--7---------------------------------7--8----------------
G|--------9--7--9--7-----7--9--7--7--9v--------9v-----7------
D|--------------------9----------------------------7-----9v--
A|-----------------------------------------------------------
E|-----------------------------------------------------------



E|------12--14--14/15--14--------------------------------------------------------
B|--12---------------------15--15/17--15--17-------------------------------------
G|--------------------------------------------12--12--12--14--14b16--------------
D|-------------------------------------------------------------------14----------
A|-----------------------------------------------------------------------12--10--
E|-------------------------------------------------------------------------------



E|-----
B|-----
G|-----
D|-----
A|-----
E|-----



E|------------------------------------------------------------------------
B|------------------------------------------------------------------------
G|------------------------------------------------------------------------
D|-----------------------------9--9--9--9--9------------------------------
A|-----0--2--------------2--2--7--7--7--7--7-----0--2b3--2--2p0-----0--2--
E|--3--------3--0--2--3-----0-----------------3------------------3-----0--
http://www.guitartabcreator.com
Guitar Tab Creator is intended to store guitar tab created through the tool. It currently does not support in-line text editing. Any text you place in here will be lost. If you need to comment on your tab, please use the "Tab Notes" section located below.