Em Pent, E Blues, G major scale

(/) Slide Up  (\) Slide Down  (h) Hammer On  (p) Pull Off  (b) Bend (r) Release (v) Vibrato
E|--------------------------------0--3--
B|--------------------------0--3--------
G|--------------------0--2--------------
D|--------------0--2--------------------
A|--------0--2--------------------------
E|--0--3--------------------------------



E|--------------------------------------0--3--
B|--------------------------------0--3--------
G|-----------------------0--2--3--------------
D|-----------------0--2-----------------------
A|--------0--1--2-----------------------------
E|--0--3--------------------------------------



E|--------------------------------------0--2--3-----
B|-----------------------------0--1--3--------------
G|-----------------------0--2-----------------------
D|--------------0--2--4-----------------------------
A|-----0--2--3--------------------------------------
E|--3-----------------------------------------------
http://www.guitartabcreator.com
Guitar Tab Creator is intended to store guitar tab created through the tool. It currently does not support in-line text editing. Any text you place in here will be lost. If you need to comment on your tab, please use the "Tab Notes" section located below.