1

(/) Slide Up  (\) Slide Down  (h) Hammer On  (p) Pull Off  (b) Bend (r) Release (v) Vibrato


E|---------------11-------------------------11---------------
B|-----------12------12-----------------12------12-----------
G|--------8--------------8-----------8--------------8--------
D|-----9--------------------9-----9--------------------9-----
A|-----------------------------4-----------------------------
E|--4-----------------------------------------------------4--



E|-----------
B|-----------
G|-----------
D|-----------
A|-----4--4--
E|--7--------



E|--------------9-----------------------9--------------
B|-----------7-----7-----------------7-----7-----------
G|--------8-----------8-----------8-----------8--------
D|-----4-----------------4-----4-----------------4-----
A|--------------------------6--------------------------
E|--7-----------------------------------------------7--
http://www.guitartabcreator.com
Guitar Tab Creator is intended to store guitar tab created through the tool. It currently does not support in-line text editing. Any text you place in here will be lost. If you need to comment on your tab, please use the "Tab Notes" section located below.