Rocket Def Leppard

(/) Slide Up  (\) Slide Down  (h) Hammer On  (p) Pull Off  (b) Bend (r) Release (v) Vibrato
E|---------------------------------------------------0-----------------------------
B|---0-----------0-----------0-----------0---------------0-------------------------
G|-------3-----------3-----------3-----------3---------------3---------------------
D|-----------4-----------4-----------4-----------4---------------------------------
A|---------------------------------------------------------------------------------
E|---------------------------------------------------------------------------------



E|--------------------------------------------------------------------
B|--2--------------------------------2--------------------------3-----
G|--2--4--7--9-----------------------2--------------------------2-----
D|--2--4--7--9--4--4------4----4--4--2--2----4--4----4----4--4--0-----
A|--0--2--5--7--4--4------4----4--4--0--2----4--4----4----4--4--------
E|--------------2--2------2----2--2-----0----2--2----2----2--2--------



E|-----------------------------------------------
B|---------------------2----------------------3--
G|---------------------2----------------------2--
D|--4--4----4----4--4--2--2------4--4----4----0--
A|--4--4----4----4--4--0--2------4--4----4-------
E|--2--2----2----2--2-----0------2--2----2-------



E|---------------------------------------------------------------------
B|---------------------2------------------3----------------------------
G|---------------------2------------------2----------------------------
D|--4--4----4----4--4--2--2--4--4----4----0-------------7--6-----4--4--
A|--4--4----4----4--4--0--2--4--4----4---------5--4-----------7--4--4--
E|--2--2----2----2--2-----0--2--2----2---------------5-----------2--2--
http://www.guitartabcreator.com
Guitar Tab Creator is intended to store guitar tab created through the tool. It currently does not support in-line text editing. Any text you place in here will be lost. If you need to comment on your tab, please use the "Tab Notes" section located below.