Flashbacks - Original

(/) Slide Up  (\) Slide Down  (h) Hammer On  (p) Pull Off  (b) Bend (r) Release (v) Vibrato


E|--0-----------------------0-----------------------
B|--------------------------------------------------
G|--------------------------------------------------
D|--------------------------------------------------
A|-----14--12--10--9--7--5-----14--12--10--9--7--5--
E|--------------------------------------------------



E|----------------------------------------------------
B|--0------------------------0------------------------
G|----------------------------------------------------
D|----------------------------------------------------
A|-----14--12--10--9--10--9-----14--12--10--9--10--9--
E|----------------------------------------------------

Repeat twice ^

E|--0----------------------0-------------------------------
B|---------------------------------------------------------
G|---------------------------------------------------------
D|---------------------------------------------------------
A|-----5--7--7/9--7--9--7-----5--7--5--7--7/9--7--9--9/12--
E|---------------------------------------------------------



E|----------------------------------
B|--0----------------0--------------
G|----------------------------------
D|----------------------------------
A|-----12--9--10--9-----12--9\7--7--
E|----------------------------------
Repeat Twice ^ http://www.guitartabcreator.com
Guitar Tab Creator is intended to store guitar tab created through the tool. It currently does not support in-line text editing. Any text you place in here will be lost. If you need to comment on your tab, please use the "Tab Notes" section located below.