verse

(/) Slide Up  (\) Slide Down  (h) Hammer On  (p) Pull Off  (b) Bend (r) Release (v) Vibrato


E|--5--3--------3--------3--------3/5p0--2--------2--------2--------2h3--0--------0-----------
B|--------3--------3--------3---------------3--------3--------3-------------1--------1--------
G|-----------4--------4--------4---------------4--------4--------4-------------0--------0-----
D|--------------------------------------------------------------------------------------------
A|---------------------------------------2-------------------------------3--------------------
E|-----3--------------------------------------------------------------------------------------



E|--0--------0h2--2--------2--------2--------2--3--2--0--------0--------0-----------------
B|-----1-------------3--------3--------3-----------------1--------1--------1--------------
G|--------0-------------2--------2--------2-----------------2--------2--------2-----------
D|----------------0-----------------------------------------------------------------------
A|----------------------------------------------------0--------------------------0--2--3--
E|----------------------------------------------------------------------------------------



E|--2--------2--------2--------2--2h3p2--0--------0--------0--------0--0--0--2--------2--------
B|-----3--------3--------3------------------1--------1--------1-----------------3--------3-----
G|--------2--------2--------2------------------2--------2--------2-----------------2--------2--
D|--0------------------------------------------------------------------------0-----------------
A|---------------------------------------0--------------------------0--2--3--------------------
E|---------------------------------------------------------------------------------------------



E|--2--------2--3/5-----
B|-----3----------------
G|--------2-------------
D|----------------------
A|----------------------
E|----------------------
http://www.guitartabcreator.com
Guitar Tab Creator is intended to store guitar tab created through the tool. It currently does not support in-line text editing. Any text you place in here will be lost. If you need to comment on your tab, please use the "Tab Notes" section located below.